  0
SECTION
  2
HEADER
  9
$ACADVER
  1
AC1015
  9
$ACADMAINTVER
 70
    20
  9
$DWGCODEPAGE
  3
ANSI_936
  9
$INSBASE
 10
0.0
 20
0.0
 30
0.0
  9
$EXTMIN
 10
93.99535786519118
 20
1.580390954501631
 30
0.0
  9
$EXTMAX
 10
878.6953578651909
 20
424.2803909545036
 30
0.0
  9
$LIMMIN
 10
0.0
 20
0.0
  9
$LIMMAX
 10
12.0
 20
9.0
  9
$ORTHOMODE
 70
     0
  9
$REGENMODE
 70
     1
  9
$FILLMODE
 70
     1
  9
$QTEXTMODE
 70
     0
  9
$MIRRTEXT
 70
     0
  9
$LTSCALE
 40
1.0
  9
$ATTMODE
 70
     1
  9
$TEXTSIZE
 40
0.2
  9
$TRACEWID
 40
0.05
  9
$TEXTSTYLE
  7
Standard
  9
$CLAYER
  8
0
  9
$CELTYPE
  6
ByLayer
  9
$CECOLOR
 62
   256
  9
$CELTSCALE
 40
1.0
  9
$DISPSILH
 70
     0
  9
$DIMSCALE
 40
1.0
  9
$DIMASZ
 40
0.18
  9
$DIMEXO
 40
0.0625
  9
$DIMDLI
 40
0.38
  9
$DIMRND
 40
0.0
  9
$DIMDLE
 40
0.0
  9
$DIMEXE
 40
0.18
  9
$DIMTP
 40
0.0
  9
$DIMTM
 40
0.0
  9
$DIMTXT
 40
0.18
  9
$DIMCEN
 40
0.09
  9
$DIMTSZ
 40
0.0
  9
$DIMTOL
 70
     0
  9
$DIMLIM
 70
     0
  9
$DIMTIH
 70
     1
  9
$DIMTOH
 70
     1
  9
$DIMSE1
 70
     0
  9
$DIMSE2
 70
     0
  9
$DIMTAD
 70
     0
  9
$DIMZIN
 70
     0
  9
$DIMBLK
  1

  9
$DIMASO
 70
     1
  9
$DIMSHO
 70
     1
  9
$DIMPOST
  1

  9
$DIMAPOST
  1

  9
$DIMALT
 70
     0
  9
$DIMALTD
 70
     2
  9
$DIMALTF
 40
25.4
  9
$DIMLFAC
 40
1.0
  9
$DIMTOFL
 70
     0
  9
$DIMTVP
 40
0.0
  9
$DIMTIX
 70
     0
  9
$DIMSOXD
 70
     0
  9
$DIMSAH
 70
     0
  9
$DIMBLK1
  1

  9
$DIMBLK2
  1

  9
$DIMSTYLE
  2
Standard
  9
$DIMCLRD
 70
     0
  9
$DIMCLRE
 70
     0
  9
$DIMCLRT
 70
     0
  9
$DIMTFAC
 40
1.0
  9
$DIMGAP
 40
0.09
  9
$DIMJUST
 70
     0
  9
$DIMSD1
 70
     0
  9
$DIMSD2
 70
     0
  9
$DIMTOLJ
 70
     1
  9
$DIMTZIN
 70
     0
  9
$DIMALTZ
 70
     0
  9
$DIMALTTZ
 70
     0
  9
$DIMUPT
 70
     0
  9
$DIMDEC
 70
     4
  9
$DIMTDEC
 70
     4
  9
$DIMALTU
 70
     2
  9
$DIMALTTD
 70
     2
  9
$DIMTXSTY
  7
Standard
  9
$DIMAUNIT
 70
     0
  9
$DIMADEC
 70
     0
  9
$DIMALTRND
 40
0.0
  9
$DIMAZIN
 70
     0
  9
$DIMDSEP
 70
    46
  9
$DIMATFIT
 70
     3
  9
$DIMFRAC
 70
     0
  9
$DIMLDRBLK
  1

  9
$DIMLUNIT
 70
     2
  9
$DIMLWD
 70
    -2
  9
$DIMLWE
 70
    -2
  9
$DIMTMOVE
 70
     0
  9
$LUNITS
 70
     2
  9
$LUPREC
 70
     4
  9
$SKETCHINC
 40
0.1
  9
$FILLETRAD
 40
0.0
  9
$AUNITS
 70
     0
  9
$AUPREC
 70
     0
  9
$MENU
  1
.
  9
$ELEVATION
 40
0.0
  9
$PELEVATION
 40
0.0
  9
$THICKNESS
 40
0.0
  9
$LIMCHECK
 70
     0
  9
$CHAMFERA
 40
0.0
  9
$CHAMFERB
 40
0.0
  9
$CHAMFERC
 40
0.0
  9
$CHAMFERD
 40
0.0
  9
$SKPOLY
 70
     0
  9
$TDCREATE
 40
2456023.586240185
  9
$TDUCREATE
 40
2456023.252906852
  9
$TDUPDATE
 40
2457169.704408056
  9
$TDUUPDATE
 40
2457169.371074722
  9
$TDINDWG
 40
0.0140626505
  9
$TDUSRTIMER
 40
0.0140615625
  9
$USRTIMER
 70
     1
  9
$ANGBASE
 50
0.0
  9
$ANGDIR
 70
     0
  9
$PDMODE
 70
     0
  9
$PDSIZE
 40
0.0
  9
$PLINEWID
 40
0.0
  9
$SPLFRAME
 70
     0
  9
$SPLINETYPE
 70
     6
  9
$SPLINESEGS
 70
     8
  9
$HANDSEED
  5
3DF
  9
$SURFTAB1
 70
     6
  9
$SURFTAB2
 70
     6
  9
$SURFTYPE
 70
     6
  9
$SURFU
 70
     6
  9
$SURFV
 70
     6
  9
$UCSBASE
  2

  9
$UCSNAME
  2

  9
$UCSORG
 10
0.0
 20
0.0
 30
0.0
  9
$UCSXDIR
 10
1.0
 20
0.0
 30
0.0
  9
$UCSYDIR
 10
0.0
 20
1.0
 30
0.0
  9
$UCSORTHOREF
  2

  9
$UCSORTHOVIEW
 70
     0
  9
$UCSORGTOP
 10
0.0
 20
0.0
 30
0.0
  9
$UCSORGBOTTOM
 10
0.0
 20
0.0
 30
0.0
  9
$UCSORGLEFT
 10
0.0
 20
0.0
 30
0.0
  9
$UCSORGRIGHT
 10
0.0
 20
0.0
 30
0.0
  9
$UCSORGFRONT
 10
0.0
 20
0.0
 30
0.0
  9
$UCSORGBACK
 10
0.0
 20
0.0
 30
0.0
  9
$PUCSBASE
  2

  9
$PUCSNAME
  2

  9
$PUCSORG
 10
0.0
 20
0.0
 30
0.0
  9
$PUCSXDIR
 10
1.0
 20
0.0
 30
0.0
  9
$PUCSYDIR
 10
0.0
 20
1.0
 30
0.0
  9
$PUCSORTHOREF
  2

  9
$PUCSORTHOVIEW
 70
     0
  9
$PUCSORGTOP
 10
0.0
 20
0.0
 30
0.0
  9
$PUCSORGBOTTOM
 10
0.0
 20
0.0
 30
0.0
  9
$PUCSORGLEFT
 10
0.0
 20
0.0
 30
0.0
  9
$PUCSORGRIGHT
 10
0.0
 20
0.0
 30
0.0
  9
$PUCSORGFRONT
 10
0.0
 20
0.0
 30
0.0
  9
$PUCSORGBACK
 10
0.0
 20
0.0
 30
0.0
  9
$USERI1
 70
     0
  9
$USERI2
 70
     0
  9
$USERI3
 70
     0
  9
$USERI4
 70
     0
  9
$USERI5
 70
     0
  9
$USERR1
 40
0.0
  9
$USERR2
 40
0.0
  9
$USERR3
 40
0.0
  9
$USERR4
 40
0.0
  9
$USERR5
 40
0.0
  9
$WORLDVIEW
 70
     1
  9
$SHADEDGE
 70
     3
  9
$SHADEDIF
 70
    70
  9
$TILEMODE
 70
     1
  9
$MAXACTVP
 70
    64
  9
$PINSBASE
 10
0.0
 20
0.0
 30
0.0
  9
$PLIMCHECK
 70
     0
  9
$PEXTMIN
 10
1.000000000000000E+20
 20
1.000000000000000E+20
 30
1.000000000000000E+20
  9
$PEXTMAX
 10
-1.000000000000000E+20
 20
-1.000000000000000E+20
 30
-1.000000000000000E+20
  9
$PLIMMIN
 10
0.0
 20
0.0
  9
$PLIMMAX
 10
12.0
 20
9.0
  9
$UNITMODE
 70
     0
  9
$VISRETAIN
 70
     1
  9
$PLINEGEN
 70
     0
  9
$PSLTSCALE
 70
     1
  9
$TREEDEPTH
 70
  3020
  9
$CMLSTYLE
  2
Standard
  9
$CMLJUST
 70
     0
  9
$CMLSCALE
 40
1.0
  9
$PROXYGRAPHICS
 70
     1
  9
$MEASUREMENT
 70
     0
  9
$CELWEIGHT
370
    -1
  9
$ENDCAPS
280
     0
  9
$JOINSTYLE
280
     0
  9
$LWDISPLAY
290
     0
  9
$INSUNITS
 70
     1
  9
$HYPERLINKBASE
  1

  9
$STYLESHEET
  1

  9
$XEDIT
290
     1
  9
$CEPSNTYPE
380
     0
  9
$PSTYLEMODE
290
     1
  9
$FINGERPRINTGUID
  2
{2D4C2987-ED8D-4794-AD8E-DFFD8DE46969}
  9
$VERSIONGUID
  2
{7D38991C-871C-4E0C-8783-84A4E7CAA955}
  9
$EXTNAMES
290
     1
  9
$PSVPSCALE
 40
0.0
  9
$OLESTARTUP
290
     0
  0
ENDSEC
  0
SECTION
  2
CLASSES
  0
CLASS
  1
ACDBDICTIONARYWDFLT
  2
AcDbDictionaryWithDefault
  3
ObjectDBX Classes
 90
        0
280
     0
281
     0
  0
CLASS
  1
MATERIAL
  2
AcDbMaterial
  3
ObjectDBX Classes
 90
     1153
280
     0
281
     0
  0
CLASS
  1
VISUALSTYLE
  2
AcDbVisualStyle
  3
ObjectDBX Classes
 90
     4095
280
     0
281
     0
  0
CLASS
  1
SCALE
  2
AcDbScale
  3
ObjectDBX Classes
 90
     1153
280
     0
281
     0
  0
CLASS
  1
TABLESTYLE
  2
AcDbTableStyle
  3
ObjectDBX Classes
 90
     4095
280
     0
281
     0
  0
CLASS
  1
MLEADERSTYLE
  2
AcDbMLeaderStyle
  3
ACDB_MLEADERSTYLE_CLASS
 90
     4095
280
     0
281
     0
  0
CLASS
  1
EXACXREFPANELOBJECT
  2
ExAcXREFPanelObject
  3
EXAC_ESW
 90
    33793
280
     0
281
     0
  0
CLASS
  1
NPOCOLLECTION
  2
AcDbImpNonPersistentObjectsCollection
  3
ObjectDBX Classes
 90
    33921
280
     0
281
     0
  0
CLASS
  1
SORTENTSTABLE
  2
AcDbSortentsTable
  3
ObjectDBX Classes
 90
        0
280
     0
281
     0
  0
CLASS
  1
DIMASSOC
  2
AcDbDimAssoc
  3
"AcDbDimAssoc|Product Desc:     AcDim ARX App For Dimension|Company:          Autodesk, Inc.|WEB Address:      www.autodesk.com"
 90
    32768
280
     0
281
     0
  0
CLASS
  1
CELLSTYLEMAP
  2
AcDbCellStyleMap
  3
ObjectDBX Classes
 90
     1152
280
     0
281
     0
  0
CLASS
  1
DICTIONARYVAR
  2
AcDbDictionaryVar
  3
ObjectDBX Classes
 90
        0
280
     0
281
     0
  0
CLASS
  1
ACDBPLACEHOLDER
  2
AcDbPlaceHolder
  3
ObjectDBX Classes
 90
        0
280
     0
281
     0
  0
CLASS
  1
LAYOUT
  2
AcDbLayout
  3
ObjectDBX Classes
 90
        0
280
     0
281
     0
  0
ENDSEC
  0
SECTION
  2
TABLES
  0
TABLE
  2
VPORT
  5
8
102
{ACAD_XDICTIONARY
360
1F2
102
}
330
0
100
AcDbSymbolTable
 70
     1
  0
VPORT
  5
57
330
8
100
AcDbSymbolTableRecord
100
AcDbViewportTableRecord
  2
*Active
 70
     0
 10
0.0
 20
0.0
 11
1.0
 21
1.0
 12
574.3079118170652
 22
336.6016602640418
 13
0.0
 23
0.0
 14
0.5
 24
0.5
 15
0.5
 25
0.5
 16
0.0
 26
0.0
 36
1.0
 17
0.0
 27
0.0
 37
0.0
 40
900.6099695885636
 41
1.658741258741258
 42
50.0
 43
0.0
 44
0.0
 50
0.0
 51
0.0
 71
     0
 72
  1000
 73
     1
 74
     3
 75
     0
 76
     0
 77
     0
 78
     0
281
     0
 65
     1
110
0.0
120
0.0
130
0.0
111
1.0
121
0.0
131
0.0
112
0.0
122
1.0
132
0.0
 79
     0
146
0.0
  0
ENDTAB
  0
TABLE
  2
LTYPE
  5
5
330
0
100
AcDbSymbolTable
 70
     2
  0
LTYPE
  5
5B
330
5
100
AcDbSymbolTableRecord
100
AcDbLinetypeTableRecord
  2
ByBlock
 70
     0
  3

 72
    65
 73
     0
 40
0.0
  0
LTYPE
  5
5C
330
5
100
AcDbSymbolTableRecord
100
AcDbLinetypeTableRecord
  2
ByLayer
 70
     0
  3

 72
    65
 73
     0
 40
0.0
  0
LTYPE
  5
5D
330
5
100
AcDbSymbolTableRecord
100
AcDbLinetypeTableRecord
  2
Continuous
 70
     0
  3
Solid line
 72
    65
 73
     0
 40
0.0
  0
LTYPE
  5
13A
330
5
100
AcDbSymbolTableRecord
100
AcDbLinetypeTableRecord
  2
CENTER2
 70
     0
  3
Center (.5x) ___ _ ___ _ ___ _ 
 72
    65
 73
     4
 40
1.125
 49
0.7500000000000001
 74
     0
 49
-0.125
 74
     0
 49
0.125
 74
     0
 49
-0.125
 74
     0
  0
ENDTAB
  0
TABLE
  2
LAYER
  5
2
102
{ACAD_XDICTIONARY
360
144
102
}
330
0
100
AcDbSymbolTable
 70
     2
  0
LAYER
  5
54
330
2
100
AcDbSymbolTableRecord
100
AcDbLayerTableRecord
  2
0
 70
     0
 62
     7
  6
Continuous
370
    -3
390
F
  0
LAYER
  5
13B
330
2
100
AcDbSymbolTableRecord
100
AcDbLayerTableRecord
  2
DEFPOINTS
 70
     0
 62
     5
  6
Continuous
290
     0
370
    -3
390
F
  0
ENDTAB
  0
TABLE
  2
STYLE
  5
3
330
0
100
AcDbSymbolTable
 70
     2
  0
STYLE
  5
55
330
3
100
AcDbSymbolTableRecord
100
AcDbTextStyleTableRecord
  2
Standard
 70
     0
 40
0.0
 41
1.0
 50
0.0
 71
     0
 42
0.2
  3
txt
  4

  0
STYLE
  5
5A
330
3
100
AcDbSymbolTableRecord
100
AcDbTextStyleTableRecord
  2
Annotative
 70
     0
 40
0.0
 41
1.0
 50
0.0
 71
     0
 42
0.2
  3
txt
  4

1001
AcadAnnotative
1000
AnnotativeData
1002
{
1070
     1
1070
     1
1002
}
  0
ENDTAB
  0
TABLE
  2
VIEW
  5
6
330
0
100
AcDbSymbolTable
 70
     0
  0
ENDTAB
  0
TABLE
  2
UCS
  5
7
330
0
100
AcDbSymbolTable
 70
     0
  0
ENDTAB
  0
TABLE
  2
APPID
  5
9
330
0
100
AcDbSymbolTable
 70
     7
  0
APPID
  5
56
330
9
100
AcDbSymbolTableRecord
100
AcDbRegAppTableRecord
  2
ACAD
 70
     0
  0
APPID
  5
5E
330
9
100
AcDbSymbolTableRecord
100
AcDbRegAppTableRecord
  2
AcadAnnotative
 70
     0
  0
APPID
  5
142
330
9
100
AcDbSymbolTableRecord
100
AcDbRegAppTableRecord
  2
ACAD_PSEXT
 70
     0
  0
APPID
  5
143
330
9
100
AcDbSymbolTableRecord
100
AcDbRegAppTableRecord
  2
ACAD_DSTYLE_DIMJOGGED_JOGANGLE_SYMBOL
 70
     0
  0
APPID
  5
228
330
9
100
AcDbSymbolTableRecord
100
AcDbRegAppTableRecord
  2
ACAD_MLEADERVER
 70
     0
  0
APPID
  5
22F
330
9
100
AcDbSymbolTableRecord
100
AcDbRegAppTableRecord
  2
ACAD_DSTYLE_DIMEXT_LENGTH
 70
     0
  0
APPID
  5
243
330
9
100
AcDbSymbolTableRecord
100
AcDbRegAppTableRecord
  2
ACAD_EXEMPT_FROM_CAD_STANDARDS
 70
     0
  0
ENDTAB
  0
TABLE
  2
DIMSTYLE
  5
A
330
0
100
AcDbSymbolTable
 70
     8
100
AcDbDimStyleTable
 71
     1
340
58
  0
DIMSTYLE
105
58
330
A
100
AcDbSymbolTableRecord
100
AcDbDimStyleTableRecord
  2
Standard
 70
     0
340
55
  0
DIMSTYLE
105
59
330
A
100
AcDbSymbolTableRecord
100
AcDbDimStyleTableRecord
  2
Annotative
 70
     0
340
55
1001
AcadAnnotative
1000
AnnotativeData
1002
{
1070
     1
1070
     1
1002
}
  0
DIMSTYLE
105
13C
330
A
100
AcDbSymbolTableRecord
100
AcDbDimStyleTableRecord
  2
B11
 70
     0
 40
7.62
 41
2.0
 42
0.8
 43
0.7
 44
1.5
 45
0.00001
 47
0.3
 71
     1
 73
     0
 74
     0
 77
     1
 78
     1
140
1.9
141
0.0
144
0.2
146
0.7
147
0.6
179
     1
271
     1
272
     1
284
    10
340
55
  0
DIMSTYLE
105
13D
330
A
100
AcDbSymbolTableRecord
100
AcDbDimStyleTableRecord
  2
15
 70
     0
 41
5.0
 42
1.0
 43
1.0
 44
1.0
 47
1.0
 48
1.000000000999997
 71
     1
 73
     0
 74
     0
 77
     1
 78
     8
 79
     2
140
15.0
141
0.0
143
0.03937007874016
147
1.0
171
     3
179
     2
271
     0
272
     0
274
     3
284
     8
340
55
371
     9
372
     9
1001
ACAD_DSTYLE_DIMEXT_LENGTH
1070
   378
1040
1.25
1001
ACAD_DSTYLE_DIMJOGGED_JOGANGLE_SYMBOL
1070
   384
1040
1.570796326794896
  0
DIMSTYLE
105
13E
330
A
100
AcDbSymbolTableRecord
100
AcDbDimStyleTableRecord
  2
BX4
 70
     0
 40
7.62
 41
2.0
 42
0.8
 43
0.7
 44
1.5
 73
     0
 74
     0
 77
     1
140
1.9
141
0.1
144
0.25
147
0.6
271
     1
272
     1
289
     2
340
55
  0
DIMSTYLE
105
13F
330
A
100
AcDbSymbolTableRecord
100
AcDbDimStyleTableRecord
  2
C
 70
     0
  3
%%c<>
 40
7.62
 41
1.5
 42
0.3125
 43
0.7
 44
1.0
 73
     0
 74
     0
 77
     1
140
1.3
141
0.045
147
0.3
271
     1
289
     2
340
55
  0
DIMSTYLE
105
140
330
A
100
AcDbSymbolTableRecord
100
AcDbDimStyleTableRecord
  2
D
 70
     0
  3
%%c<>
 40
7.62
 41
2.0
 42
0.6
 43
0.7
 44
1.5
 73
     0
 74
     0
 77
     1
140
1.9
141
0.1
147
0.6
271
     0
289
     2
340
55
  0
DIMSTYLE
105
141
330
A
100
AcDbSymbolTableRecord
100
AcDbDimStyleTableRecord
  2
b44
 70
     0
  3
"
  4
"
 40
10.0
 41
1.0
 42
0.3125
 43
0.7
 44
1.0
 47
1.0
 48
1.0
 77
     1
140
2.0
141
0.045
143
0.03937
144
0.03937
146
0.8
147
0.8
271
     3
272
     3
273
     5
277
     5
340
55
1001
ACAD_DSTYLE_DIMJOGGED_JOGANGLE_SYMBOL
1070
   384
1040
0.7853981633974483
  0
ENDTAB
  0
TABLE
  2
BLOCK_RECORD
  5
1
330
0
100
AcDbSymbolTable
 70
     7
  0
BLOCK_RECORD
  5
6C
330
1
100
AcDbSymbolTableRecord
100
AcDbBlockTableRecord
  2
*Model_Space
340
6F
  0
BLOCK_RECORD
  5
68
330
1
100
AcDbSymbolTableRecord
100
AcDbBlockTableRecord
  2
*Paper_Space
340
6B
  0
BLOCK_RECORD
  5
70
330
1
100
AcDbSymbolTableRecord
100
AcDbBlockTableRecord
  2
*Paper_Space0
340
73
  0
BLOCK_RECORD
  5
78
102
{ACAD_XDICTIONARY
360
79
102
}
330
1
100
AcDbSymbolTableRecord
100
AcDbBlockTableRecord
  2
A$C7B7D6155
340
0
102
{BLKREFS
331
E1
102
}
  0
BLOCK_RECORD
  5
DD
102
{ACAD_XDICTIONARY
360
DE
102
}
330
1
100
AcDbSymbolTableRecord
100
AcDbBlockTableRecord
  2
A$C40C2364E
340
0
102
{BLKREFS
331
19A
102
}
  0
BLOCK_RECORD
  5
EF
102
{ACAD_XDICTIONARY
360
F0
102
}
330
1
100
AcDbSymbolTableRecord
100
AcDbBlockTableRecord
  2
A$C050E5E0D
340
0
102
{BLKREFS
331
194
102
}
  0
BLOCK_RECORD
  5
1AB
330
1
100
AcDbSymbolTableRecord
100
AcDbBlockTableRecord
  2
*D4
340
0
  0
BLOCK_RECORD
  5
1B8
330
1
100
AcDbSymbolTableRecord
100
AcDbBlockTableRecord
  2
*D5
340
0
  0
BLOCK_RECORD
  5
1C5
330
1
100
AcDbSymbolTableRecord
100
AcDbBlockTableRecord
  2
*D6
340
0
  0
ENDTAB
  0
ENDSEC
  0
SECTION
  2
BLOCKS
  0
BLOCK
  5
6D
330
6C
100
AcDbEntity
  8
0
100
AcDbBlockBegin
  2
*Model_Space
 70
     0
 10
0.0
 20
0.0
 30
0.0
  3
*Model_Space
  1

  0
ENDBLK
  5
6E
330
6C
100
AcDbEntity
  8
0
100
AcDbBlockEnd
  0
BLOCK
  5
69
330
68
100
AcDbEntity
 67
     1
  8
0
100
AcDbBlockBegin
  2
*Paper_Space
 70
     0
 10
0.0
 20
0.0
 30
0.0
  3
*Paper_Space
  1

  0
ENDBLK
  5
6A
330
68
100
AcDbEntity
 67
     1
  8
0
100
AcDbBlockEnd
  0
BLOCK
  5
71
330
70
100
AcDbEntity
 67
     1
  8
0
100
AcDbBlockBegin
  2
*Paper_Space0
 70
     0
 10
0.0
 20
0.0
 30
0.0
  3
*Paper_Space0
  1

  0
ENDBLK
  5
72
330
70
100
AcDbEntity
 67
     1
  8
0
100
AcDbBlockEnd
  0
BLOCK
  5
7B
330
78
100
AcDbEntity
  8
0
 62
     7
100
AcDbBlockBegin
  2
A$C7B7D6155
 70
     0
 10
0.0
 20
0.0
 30
0.0
  3
A$C7B7D6155
  1

  0
LINE
  5
7C
330
78
100
AcDbEntity
  8
0
 62
     7
100
AcDbLine
 10
128.4718868992113
 20
-68.11360423731184
 30
0.0
 11
128.4718868992113
 21
-2.147667535574328
 31
0.0
  0
LINE
  5
7D
330
78
100
AcDbEntity
  8
0
 62
     7
100
AcDbLine
 10
131.4718868992112
 20
-68.11360423731184
 30
0.0
 11
131.4718868992112
 21
-2.147667535574328
 31
0.0
  0
ARC
  5
7E
330
78
100
AcDbEntity
  8
0
 62
     7
100
AcDbCircle
 10
123.4718868992113
 20
-2.147667535574328
 30
0.0
 40
5.0
100
AcDbArc
 50
0.0
 51
90.0
  0
ARC
  5
7F
330
78
100
AcDbEntity
  8
0
 62
     7
100
AcDbCircle
 10
123.4718868992113
 20
-2.147667535574328
 30
0.0
 40
8.0
100
AcDbArc
 50
0.0
 51
90.0
  0
LINE
  5
80
330
78
100
AcDbEntity
  8
0
 62
     7
100
AcDbLine
 10
87.64094014464172
 20
2.85233246442567
 30
0.0
 11
123.4718868992113
 21
2.85233246442567
 31
0.0
  0
LINE
  5
81
330
78
100
AcDbEntity
  8
0
 62
     7
100
AcDbLine
 10
87.64094014464172
 20
5.85233246442567
 30
0.0
 11
123.4718868992113
 21
5.85233246442567
 31
0.0
  0
LINE
  5
82
330
78
100
AcDbEntity
  8
0
 62
     7
100
AcDbLine
 10
87.64094014464172
 20
5.852332464425217
 30
0.0
 11
87.64094014464172
 21
2.852332464426126
 31
0.0
  0
LINE
  5
83
330
78
100
AcDbEntity
  8
0
 62
     7
100
AcDbLine
 10
103.2000983335801
 20
2.85233246442567
 30
0.0
 11
99.71272570963629
 21
-4.73587245071303
 31
0.0
  0
LINE
  5
84
330
78
100
AcDbEntity
  8
0
 62
     7
100
AcDbLine
 10
107.7432780870676
 20
0.7643866491562222
 30
0.0
 11
102.8713857624138
 21
-9.836406919660475
 31
0.0
  0
LINE
  5
85
330
78
100
AcDbEntity
  8
0
 62
     7
100
AcDbLine
 10
103.2000983335801
 20
2.85233246442567
 30
0.0
 11
107.7432780870676
 21
0.7643866491562222
 31
0.0
  0
LINE
  5
86
330
78
100
AcDbEntity
  8
0
 62
     7
100
AcDbLine
 10
99.71272570963629
 20
-4.73587245071303
 30
0.0
 11
-44.41119242720924
 21
-0.2587198794690266
 31
0.0
  0
LINE
  5
87
330
78
100
AcDbEntity
  8
0
 62
     7
100
AcDbLine
 10
102.8713857624143
 20
-9.836406919659566
 30
0.0
 11
-47.54512995551134
 21
-5.163777290865255
 31
0.0
  0
LINE
  5
88
330
78
100
AcDbEntity
  8
0
 62
     7
100
AcDbLine
 10
40.73524613372422
 20
-10.4073782643045
 30
0.0
 11
11.56976904596286
 21
-9.50136424232096
 31
0.0
  0
LINE
  5
89
330
78
100
AcDbEntity
  8
0
 62
     7
100
AcDbLine
 10
-48.78536196946583
 20
8.465384084479865
 30
0.0
 11
-44.41119242720924
 21
-0.2587198794690266
 31
0.0
  0
LINE
  5
8A
330
78
100
AcDbEntity
  8
0
 62
     7
100
AcDbLine
 10
-53.25501187423788
 20
6.22435090115232
 30
0.0
 11
-47.54512995551112
 21
-5.163777290866163
 31
0.0
  0
LINE
  5
8B
330
78
100
AcDbEntity
  8
0
 62
     7
100
AcDbLine
 10
-48.78536196946561
 20
8.46538408447941
 30
0.0
 11
-53.25501187423765
 21
6.22435090115232
 31
0.0
  0
LINE
  5
8C
330
78
100
AcDbEntity
  8
0
 62
     7
100
AcDbLine
 10
89.72182722245451
 20
8.474980035319275
 30
0.0
 11
89.72182722245451
 21
5.85233246442567
 31
0.0
  0
LINE
  5
8D
330
78
100
AcDbEntity
  8
0
 62
     7
100
AcDbLine
 10
114.2486019822081
 20
5.85233246442567
 30
0.0
 11
114.2486019822081
 21
8.46538408447941
 31
0.0
  0
LINE
  5
8E
330
78
100
AcDbEntity
  8
0
 62
     7
100
AcDbLine
 10
114.2486019822081
 20
8.46538408447941
 30
0.0
 11
34.94893704653623
 21
8.46538408447941
 31
0.0
  0
LINE
  5
8F
330
78
100
AcDbEntity
  8
0
 62
     7
100
AcDbLine
 10
17.71197862285589
 20
8.46538408447941
 30
0.0
 11
-77.11930290466444
 21
8.46538408447941
 31
0.0
  0
SPLINE
  5
90
330
78
100
AcDbEntity
  8
0
 62
     7
100
AcDbSpline
210
0.0
220
0.0
230
1.0
 70
    40
 71
     3
 72
    12
 73
     8
 74
     6
 42
0.0000000001
 43
0.0000000001
 44
0.0000000001
 40
0.0
 40
0.0
 40
0.0
 40
0.0
 40
5.044115551326623
 40
15.43448588604933
 40
27.56618128587151
 40
37.38365067103354
 40
47.20720531347018
 40
47.20720531347018
 40
47.20720531347018
 40
47.20720531347018
 10
-87.03539645197635
 20
53.55187860205024
 30
0.0
 10
-85.95676606030158
 20
52.22204985064099
 30
0.0
 10
-82.65626562823094
 20
48.15290772143455
 30
0.0
 10
-82.73080916537914
 20
38.33757821958347
 30
0.0
 10
-83.58141129937944
 20
27.80693564437918
 30
0.0
 10
-81.94255937792419
 20
17.0898280451415
 30
0.0
 10
-78.72738710807912
 20
11.34079246743916
 30
0.0
 10
-77.11930290466444
 20
8.46538408447941
 30
0.0
 11
-87.03539645197635
 21
53.55187860205024
 31
0.0
 11
-84.15646816839034
 21
49.4100343711425
 31
0.0
 11
-82.8392179741877
 21
39.10350015160203
 31
0.0
 11
-83.12004552126927
 21
26.97505552078201
 31
0.0
 11
-81.39269459757088
 21
17.31074158160391
 31
0.0
 11
-77.11930290466444
 21
8.46538408447941
 31
0.0
  0
LINE
  5
91
330
78
100
AcDbEntity
  8
0
 62
     7
100
AcDbLine
 10
-87.03539645197635
 20
53.55187860205024
 30
0.0
 11
104.2889160709655
 21
53.55187860205115
 31
0.0
  0
LINE
  5
92
330
78
100
AcDbEntity
  8
0
 62
     7
100
AcDbLine
 10
112.2889160709656
 20
8.46538408447941
 30
0.0
 11
112.2889160709656
 21
45.55187860205115
 31
0.0
  0
ARC
  5
93
330
78
100
AcDbEntity
  8
0
 62
     7
100
AcDbCircle
 10
104.2889160709655
 20
45.55187860205115
 30
0.0
 40
8.0
100
AcDbArc
 50
0.0
 51
90.0
  0
LINE
  5
94
330
78
100
AcDbEntity
  8
0
 62
     7
100
AcDbLine
 10
11.64739311321614
 20
-7.00256963207812
 30
0.0
 11
11.56976904596286
 21
-9.501364242321866
 31
0.0
  0
LINE
  5
95
330
78
100
AcDbEntity
  8
0
 62
     7
100
AcDbLine
 10
40.81287020097761
 20
-7.908583654059839
 30
0.0
 11
40.73524613372422
 21
-10.4073782643045
 31
0.0
  0
ARC
  5
96
330
78
100
AcDbEntity
  8
0
 62
     7
100
AcDbCircle
 10
26.42199485585297
 20
-5.51385001201379
 30
0.0
 40
8.179301531451695
100
AcDbArc
 50
211.153746727349
 51
325.2876561675968
  0
LINE
  5
97
330
78
100
AcDbEntity
  8
0
 62
     7
100
AcDbLine
 10
17.71197862285589
 20
28.88089830073204
 30
0.0
 11
17.71197862285589
 21
6.689440853816449
 31
0.0
  0
LINE
  5
98
330
78
100
AcDbEntity
  8
0
 62
     7
100
AcDbLine
 10
17.71197862285589
 20
6.689440853816449
 30
0.0
 11
26.16368152255564
 21
6.689440853816449
 31
0.0
  0
LINE
  5
99
330
78
100
AcDbEntity
  8
0
 62
     7
100
AcDbLine
 10
26.16368152255564
 20
28.88089830073204
 30
0.0
 11
17.71197862285589
 21
28.88089830073204
 31
0.0
  0
LINE
  5
9A
330
78
100
AcDbEntity
  8
0
 62
     7
100
AcDbLine
 10
26.16368152255564
 20
35.89529685575236
 30
0.0
 11
26.16368152255564
 21
-17.20336579651575
 31
0.0
  0
LINE
  5
9B
330
78
100
AcDbEntity
  8
0
 62
     7
100
AcDbLine
 10
24.17911445389291
 20
28.88089830073204
 30
0.0
 11
24.17911445389291
 21
26.5191029505977
 31
0.0
  0
LINE
  5
9C
330
78
100
AcDbEntity
  8
0
 62
     7
100
AcDbLine
 10
24.17911445389291
 20
26.5191029505977
 30
0.0
 11
22.77204418837027
 21
26.5191029505977
 31
0.0
  0
LINE
  5
9D
330
78
100
AcDbEntity
  8
0
 62
     7
100
AcDbLine
 10
22.77204418837027
 20
26.5191029505977
 30
0.0
 11
22.77204418837027
 21
20.1178148116478
 31
0.0
  0
LINE
  5
9E
330
78
100
AcDbEntity
  8
0
 62
     7
100
AcDbLine
 10
22.77204418837027
 20
20.1178148116478
 30
0.0
 11
20.18023176383394
 21
20.1178148116478
 31
0.0
  0
LINE
  5
9F
330
78
100
AcDbEntity
  8
0
 62
     7
100
AcDbLine
 10
20.18023176383394
 20
20.1178148116478
 30
0.0
 11
20.18023176383394
 21
6.689440853816449
 31
0.0
  0
LINE
  5
A0
330
78
100
AcDbEntity
  8
0
 62
     7
100
AcDbLine
 10
20.18023176383394
 20
18.26890371318859
 30
0.0
 11
17.71197862285589
 21
18.26890371318859
 31
0.0
  0
LINE
  5
A1
330
78
100
AcDbEntity
  8
0
 62
     7
100
AcDbLine
 10
20.18023176383394
 20
15.03283029837075
 30
0.0
 11
17.71197862285589
 21
15.03283029837075
 31
0.0
  0
LINE
  5
A2
330
78
100
AcDbEntity
  8
0
 62
     7
100
AcDbLine
 10
20.18023176383394
 20
12.55911975647814
 30
0.0
 11
17.71197862285589
 21
12.55911975647814
 31
0.0
  0
LINE
  5
A3
330
78
100
AcDbEntity
  8
0
 62
     7
100
AcDbLine
 10
20.18023176383394
 20
10.21794926041457
 30
0.0
 11
17.71197862285589
 21
10.21794926041457
 31
0.0
  0
LINE
  5
A4
330
78
100
AcDbEntity
  8
0
 62
     7
100
AcDbLine
 10
22.77204418837027
 20
20.1178148116478
 30
0.0
 11
23.65180321734624
 21
19.54555158900166
 31
0.0
  0
LINE
  5
A5
330
78
100
AcDbEntity
  8
0
 62
     7
100
AcDbLine
 10
23.65180321734624
 20
19.54555158900166
 30
0.0
 11
21.65180321734624
 21
18.2286844427208
 31
0.0
  0
LINE
  5
A6
330
78
100
AcDbEntity
  8
0
 62
     7
100
AcDbLine
 10
21.65180321734624
 20
18.2286844427208
 30
0.0
 11
23.65180321734624
 21
17.26522521746847
 31
0.0
  0
LINE
  5
A7
330
78
100
AcDbEntity
  8
0
 62
     7
100
AcDbLine
 10
23.65180321734624
 20
14.98489884593527
 30
0.0
 11
21.65180321734624
 21
16.30176599221613
 31
0.0
  0
LINE
  5
A8
330
78
100
AcDbEntity
  8
0
 62
     7
100
AcDbLine
 10
21.65180321734624
 20
16.30176599221613
 30
0.0
 11
23.65180321734624
 21
17.26522521746847
 31
0.0
  0
LINE
  5
A9
330
78
100
AcDbEntity
  8
0
 62
     7
100
AcDbLine
 10
23.65180321734624
 20
10.42424610286889
 30
0.0
 11
21.65180321734624
 21
11.74111324914975
 31
0.0
  0
LINE
  5
AA
330
78
100
AcDbEntity
  8
0
 62
     7
100
AcDbLine
 10
21.65180321734624
 20
11.74111324914975
 30
0.0
 11
23.65180321734624
 21
12.70457247440208
 31
0.0
  0
LINE
  5
AB
330
78
100
AcDbEntity
  8
0
 62
     7
100
AcDbLine
 10
23.65180321734624
 20
14.98489884593527
 30
0.0
 11
21.65180321734624
 21
13.66803169965442
 31
0.0
  0
LINE
  5
AC
330
78
100
AcDbEntity
  8
0
 62
     7
100
AcDbLine
 10
21.65180321734624
 20
13.66803169965442
 30
0.0
 11
23.65180321734624
 21
12.70457247440208
 31
0.0
  0
LINE
  5
AD
330
78
100
AcDbEntity
  8
0
 62
     7
100
AcDbLine
 10
23.65180321734624
 20
10.42424610286889
 30
0.0
 11
21.65180321734624
 21
9.107378956588037
 31
0.0
  0
LINE
  5
AE
330
78
100
AcDbEntity
  8
0
 62
     7
100
AcDbLine
 10
21.65180321734624
 20
9.107378956588037
 30
0.0
 11
23.65180321734624
 21
8.143919731335699
 31
0.0
  0
LINE
  5
AF
330
78
100
AcDbEntity
  8
0
 62
     7
100
AcDbLine
 10
34.61538442225537
 20
28.88089830073204
 30
0.0
 11
34.61538442225537
 21
6.689440853816449
 31
0.0
  0
LINE
  5
B0
330
78
100
AcDbEntity
  8
0
 62
     7
100
AcDbLine
 10
34.61538442225537
 20
6.689440853816449
 30
0.0
 11
26.16368152255564
 21
6.689440853816449
 31
0.0
  0
LINE
  5
B1
330
78
100
AcDbEntity
  8
0
 62
     7
100
AcDbLine
 10
26.16368152255564
 20
28.88089830073204
 30
0.0
 11
34.61538442225537
 21
28.88089830073204
 31
0.0
  0
LINE
  5
B2
330
78
100
AcDbEntity
  8
0
 62
     7
100
AcDbLine
 10
28.14824859121836
 20
28.88089830073204
 30
0.0
 11
28.14824859121836
 21
26.5191029505977
 31
0.0
  0
LINE
  5
B3
330
78
100
AcDbEntity
  8
0
 62
     7
100
AcDbLine
 10
28.14824859121836
 20
26.5191029505977
 30
0.0
 11
29.555318856741
 21
26.5191029505977
 31
0.0
  0
LINE
  5
B4
330
78
100
AcDbEntity
  8
0
 62
     7
100
AcDbLine
 10
29.555318856741
 20
26.5191029505977
 30
0.0
 11
29.555318856741
 21
20.1178148116478
 31
0.0
  0
LINE
  5
B5
330
78
100
AcDbEntity
  8
0
 62
     7
100
AcDbLine
 10
29.555318856741
 20
20.1178148116478
 30
0.0
 11
32.14713128127733
 21
20.1178148116478
 31
0.0
  0
LINE
  5
B6
330
78
100
AcDbEntity
  8
0
 62
     7
100
AcDbLine
 10
32.14713128127733
 20
20.1178148116478
 30
0.0
 11
32.14713128127733
 21
6.689440853816449
 31
0.0
  0
LINE
  5
B7
330
78
100
AcDbEntity
  8
0
 62
     7
100
AcDbLine
 10
32.14713128127733
 20
18.26890371318859
 30
0.0
 11
34.61538442225537
 21
18.26890371318859
 31
0.0
  0
LINE
  5
B8
330
78
100
AcDbEntity
  8
0
 62
     7
100
AcDbLine
 10
32.14713128127733
 20
15.03283029837075
 30
0.0
 11
34.61538442225537
 21
15.03283029837075
 31
0.0
  0
LINE
  5
B9
330
78
100
AcDbEntity
  8
0
 62
     7
100
AcDbLine
 10
32.14713128127733
 20
12.55911975647814
 30
0.0
 11
34.61538442225537
 21
12.55911975647814
 31
0.0
  0
LINE
  5
BA
330
78
100
AcDbEntity
  8
0
 62
     7
100
AcDbLine
 10
32.14713128127733
 20
10.21794926041457
 30
0.0
 11
34.61538442225537
 21
10.21794926041457
 31
0.0
  0
LINE
  5
BB
330
78
100
AcDbEntity
  8
0
 62
     7
100
AcDbLine
 10
29.555318856741
 20
20.1178148116478
 30
0.0
 11
28.67555982776503
 21
19.54555158900166
 31
0.0
  0
LINE
  5
BC
330
78
100
AcDbEntity
  8
0
 62
     7
100
AcDbLine
 10
28.67555982776503
 20
19.54555158900166
 30
0.0
 11
30.67555982776503
 21
18.2286844427208
 31
0.0
  0
LINE
  5
BD
330
78
100
AcDbEntity
  8
0
 62
     7
100
AcDbLine
 10
30.67555982776503
 20
18.2286844427208
 30
0.0
 11
28.67555982776503
 21
17.26522521746847
 31
0.0
  0
LINE
  5
BE
330
78
100
AcDbEntity
  8
0
 62
     7
100
AcDbLine
 10
28.67555982776503
 20
14.98489884593527
 30
0.0
 11
30.67555982776503
 21
16.30176599221613
 31
0.0
  0
LINE
  5
BF
330
78
100
AcDbEntity
  8
0
 62
     7
100
AcDbLine
 10
30.67555982776503
 20
16.30176599221613
 30
0.0
 11
28.67555982776503
 21
17.26522521746847
 31
0.0
  0
LINE
  5
C0
330
78
100
AcDbEntity
  8
0
 62
     7
100
AcDbLine
 10
28.67555982776503
 20
10.42424610286889
 30
0.0
 11
30.67555982776503
 21
11.74111324914975
 31
0.0
  0
LINE
  5
C1
330
78
100
AcDbEntity
  8
0
 62
     7
100
AcDbLine
 10
30.67555982776503
 20
11.74111324914975
 30
0.0
 11
28.67555982776503
 21
12.70457247440208
 31
0.0
  0
LINE
  5
C2
330
78
100
AcDbEntity
  8
0
 62
     7
100
AcDbLine
 10
28.67555982776503
 20
14.98489884593527
 30
0.0
 11
30.67555982776503
 21
13.66803169965442
 31
0.0
  0
LINE
  5
C3
330
78
100
AcDbEntity
  8
0
 62
     7
100
AcDbLine
 10
30.67555982776503
 20
13.66803169965442
 30
0.0
 11
28.67555982776503
 21
12.70457247440208
 31
0.0
  0
LINE
  5
C4
330
78
100
AcDbEntity
  8
0
 62
     7
100
AcDbLine
 10
28.67555982776503
 20
10.42424610286889
 30
0.0
 11
30.67555982776503
 21
9.107378956588037
 31
0.0
  0
LINE
  5
C5
330
78
100
AcDbEntity
  8
0
 62
     7
100
AcDbLine
 10
30.67555982776503
 20
9.107378956588037
 30
0.0
 11
28.67555982776503
 21
8.143919731335699
 31
0.0
  0
ARC
  5
C6
330
78
100
AcDbEntity
  8
0
 62
     7
100
AcDbCircle
 10
26.16368152255564
 20
19.19970613252917
 30
0.0
 40
5.750135146985215
100
AcDbArc
 50
53.85462122643402
 51
126.1453787735659
  0
LINE
  5
C7
330
78
100
AcDbEntity
  8
0
 62
     7
100
AcDbLine
 10
21.93783007270576
 20
28.88089830073204
 30
0.0
 11
17.71197862285589
 21
24.46719563034549
 31
0.0
  0
LINE
  5
C8
330
78
100
AcDbEntity
  8
0
 62
     7
100
AcDbLine
 10
22.77204418837027
 20
25.18756816805035
 30
0.0
 11
17.71197862285589
 21
20.6625138265108
 31
0.0
  0
LINE
  5
C9
330
78
100
AcDbEntity
  8
0
 62
     7
100
AcDbLine
 10
30.38953297240551
 20
28.88089830073204
 30
0.0
 11
34.61538442225537
 21
24.46719563034549
 31
0.0
  0
LINE
  5
CA
330
78
100
AcDbEntity
  8
0
 62
     7
100
AcDbLine
 10
29.555318856741
 20
25.18756816805035
 30
0.0
 11
34.61538442225537
 21
20.6625138265108
 31
0.0
  0
LINE
  5
CB
330
78
100
AcDbEntity
  8
0
 62
     7
100
AcDbLine
 10
23.65180321734624
 20
8.143919731335699
 30
0.0
 11
23.65180321734624
 21
6.196312024420876
 31
0.0
  0
LINE
  5
CC
330
78
100
AcDbEntity
  8
0
 62
     7
100
AcDbLine
 10
23.65180321734624
 20
6.196312024420876
 30
0.0
 11
22.36868525488354
 21
4.584610898650676
 31
0.0
  0
LINE
  5
CD
330
78
100
AcDbEntity
  8
0
 62
     7
100
AcDbLine
 10
22.36868525488354
 20
4.584610898650676
 30
0.0
 11
23.66676819052191
 21
3.262784771063707
 31
0.0
  0
LINE
  5
CE
330
78
100
AcDbEntity
  8
0
 62
     7
100
AcDbLine
 10
23.66676819052191
 20
3.262784771063707
 30
0.0
 11
22.3936268768357
 21
2.240236385440766
 31
0.0
  0
LINE
  5
CF
330
78
100
AcDbEntity
  8
0
 62
     7
100
AcDbLine
 10
22.3936268768357
 20
2.240236385440766
 30
0.0
 11
23.71668166669952
 21
0.6939519513825873
 31
0.0
  0
LINE
  5
D0
330
78
100
AcDbEntity
  8
0
 62
     7
100
AcDbLine
 10
23.71668166669952
 20
0.6939519513825873
 30
0.0
 11
22.33137863489355
 21
-0.3292243571968356
 31
0.0
  0
LINE
  5
D1
330
78
100
AcDbEntity
  8
0
 62
     7
100
AcDbLine
 10
22.33137863489355
 20
-0.3292243571968356
 30
0.0
 11
22.33137863489355
 21
-8.504588058528497
 31
0.0
  0
LINE
  5
D2
330
78
100
AcDbEntity
  8
0
 62
     7
100
AcDbLine
 10
28.67555982776503
 20
8.143919731335699
 30
0.0
 11
28.67555982776503
 21
6.196312024420876
 31
0.0
  0
LINE
  5
D3
330
78
100
AcDbEntity
  8
0
 62
     7
100
AcDbLine
 10
28.67555982776503
 20
6.196312024420876
 30
0.0
 11
29.95867779022774
 21
4.584610898650676
 31
0.0
  0
LINE
  5
D4
330
78
100
AcDbEntity
  8
0
 62
     7
100
AcDbLine
 10
29.95867779022774
 20
4.584610898650676
 30
0.0
 11
28.66059485458936
 21
3.262784771063707
 31
0.0
  0
LINE
  5
D5
330
78
100
AcDbEntity
  8
0
 62
     7
100
AcDbLine
 10
28.66059485458936
 20
3.262784771063707
 30
0.0
 11
29.93373616827557
 21
2.240236385440766
 31
0.0
  0
LINE
  5
D6
330
78
100
AcDbEntity
  8
0
 62
     7
100
AcDbLine
 10
29.93373616827557
 20
2.240236385440766
 30
0.0
 11
28.61068137841176
 21
0.6939519513825873
 31
0.0
  0
LINE
  5
D7
330
78
100
AcDbEntity
  8
0
 62
     7
100
AcDbLine
 10
28.61068137841176
 20
0.6939519513825873
 30
0.0
 11
29.99598441021772
 21
-0.3292243571968356
 31
0.0
  0
LINE
  5
D8
330
78
100
AcDbEntity
  8
0
 62
     7
100
AcDbLine
 10
29.99598441021772
 20
-0.3292243571968356
 30
0.0
 11
29.99598441021772
 21
-8.504588058528497
 31
0.0
  0
LINE
  5
D9
330
78
100
AcDbEntity
  8
0
 62
     7
100
AcDbLine
 10
29.99598441021772
 20
-8.504588058528497
 30
0.0
 11
22.33137863489355
 21
-8.504588058528497
 31
0.0
  0
LINE
  5
DA
330
78
100
AcDbEntity
  8
0
 62
     7
100
AcDbLine
 10
131.4718868992112
 20
-68.11360423731184
 30
0.0
 11
128.4718868992113
 21
-68.11360423731184
 31
0.0
  0
HATCH
  5
DB
330
78
100
AcDbEntity
  8
0
 62
     7
100
AcDbHatch
 10
0.0
 20
0.0
 30
0.0
210
0.0
220
0.0
230
1.0
  2
ANSI31
 70
     0
 71
     0
 91
        1
 92
        5
 93
       10
 72
     2
 10
104.2889160709655
 20
45.55187860205115
 40
8.0
 50
0.0
 51
90.0
 73
     1
 72
     1
 10
104.2889160709655
 20
53.55187860205115
 11
-87.03539645197681
 21
53.55187860205115
 72
     4
 94
        3
 73
     0
 74
     0
 95
       12
 96
        8
 40
0.0
 40
0.0
 40
0.0
 40
0.0
 40
5.044115551326623
 40
15.43448588604934
 40
27.56618128587152
 40
37.38365067103357
 40
47.20720531347018
 40
47.20720531347018
 40
47.20720531347018
 40
47.20720531347018
 10
-87.03539645197635
 20
53.55187860205024
 10
-85.95676606030158
 20
52.22204985064081
 10
-82.65626562823081
 20
48.15290772143454
 10
-82.73080916537924
 20
38.33757821958353
 10
-83.58141129937939
 20
27.80693564437934
 10
-81.94255937792423
 20
17.08982804514153
 10
-78.72738710807903
 20
11.34079246743931
 10
-77.11930290466444
 20
8.46538408447941
 72
     1
 10
-77.11930290466444
 20
8.46538408447941
 11
17.71197862285589
 21
8.46538408447941
 72
     1
 10
17.71197862285589
 20
8.46538408447941
 11
17.71197862285612
 21
28.8808983007325
 72
     1
 10
17.71197862285612
 20
28.8808983007325
 11
26.16368152255564
 21
28.88089830073204
 72
     1
 10
26.16368152255564
 20
28.88089830073204
 11
34.61538442225537
 21
28.88089830073204
 72
     1
 10
34.61538442225537
 20
28.88089830073204
 11
34.61538442225515
 21
8.46538408447941
 72
     1
 10
34.61538442225515
 20
8.46538408447941
 11
112.2889160709653
 21
8.465384084479865
 72
     1
 10
112.2889160709653
 20
8.465384084479865
 11
112.2889160709656
 21
45.55187860205115
 97
        0
 75
     0
 76
     1
 52
0.0
 41
25.0
 77
     0
 78
     1
 53
45.0
 43
-1354.086106484478
 44
-3682.020655043672
 45
-2.209708691207957
 46
2.209708691207957
 79
     0
 47
0.3407784301668528
 98
        1
 10
63.63743172773502
 20
39.00029729870766
1001
ACAD
1010
0.0
1020
0.0
1030
0.0
  0
ENDBLK
  5
DC
330
78
100
AcDbEntity
  8
0
 62
     7
100
AcDbBlockEnd
  0
BLOCK
  5
E0
330
DD
100
AcDbEntity
  8
0
 62
     7
100
AcDbBlockBegin
  2
A$C40C2364E
 70
     0
 10
0.0
 20
0.0
 30
0.0
  3
A$C40C2364E
  1

  0
INSERT
  5
E1
330
DD
100
AcDbEntity
  8
0
 62
     7
100
AcDbBlockReference
  2
A$C7B7D6155
 10
32.52107706848256
 20
-19.82535338705929
 30
0.0
 41
0.6500000000000911
 42
0.6500000000000911
 43
0.6500000000000911
  0
LINE
  5
E2
330
DD
100
AcDbEntity
  8
0
 62
     7
100
AcDbLine
 10
6.338922132137891
 20
14.98336770427386
 30
0.0
 11
-0.5668338735704312
 21
26.11045444281717
 31
0.0
  0
LINE
  5
E3
330
DD
100
AcDbEntity
  8
0
 62
     7
100
AcDbLine
 10
-0.5668338735704312
 20
26.11045444281717
 30
0.0
 11
-4.170457308955517
 21
26.11045444281717
 31
0.0
  0
MTEXT
  5
E4
330
DD
100
AcDbEntity
  8
0
 62
     7
100
AcDbMText
 10
-53.83781552087747
 20
29.9927615165243
 30
0.0
 40
5.0
 41
30.03556079984628
 71
     1
 72
     5
  1
{\fArial|b0|i0|c0|p34;COUNTERTOP}
 73
     1
 44
1.0
1001
ACAD
1000
MTEXTBEGIN
1070
    73
1070
     1
1070
    44
1040
1.0
1070
    74
1070
     0
1000
MTEXTEND
  0
LINE
  5
E5
330
DD
100
AcDbEntity
  8
0
 62
     7
100
AcDbLine
 10
17.26247024328222
 20
-23.66783697356254
 30
0.0
 11
-0.3725853457581252
 21
-36.31629570176574
 31
0.0
  0
LINE
  5
E6
330
DD
100
AcDbEntity
  8
0
 62
     7
100
AcDbLine
 10
-0.3725853457581252
 20
-36.31629570176574
 30
0.0
 11
-2.548959822626783
 21
-36.31629570176574
 31
0.0
  0
MTEXT
  5
E7
330
DD
100
AcDbEntity
  8
0
 62
     7
100
AcDbMText
 10
-39.41373040020699
 20
-33.13097170890888
 30
0.0
 40
5.0
 41
30.03556079984628
 71
     1
 72
     5
  1
{\fArial|b0|i0|c0|p34;FASTENER}
 73
     1
 44
1.0
1001
ACAD
1000
MTEXTBEGIN
1070
    73
1070
     1
1070
    44
1040
1.0
1070
    74
1070
     0
1000
MTEXTEND
  0
LINE
  5
E8
330
DD
100
AcDbEntity
  8
0
 62
     7
100
AcDbLine
 10
47.76329757453095
 20
-28.36240980849374
 30
0.0
 11
39.26546135457466
 21
-42.82151377184436
 31
0.0
  0
LINE
  5
E9
330
DD
100
AcDbEntity
  8
0
 62
     7
100
AcDbLine
 10
39.26546135457466
 20
-42.82151377184436
 30
0.0
 11
37.45967632953762
 21
-42.82151377184436
 31
0.0
  0
MTEXT
  5
EA
330
DD
100
AcDbEntity
  8
0
 62
     7
100
AcDbMText
 10
6.606316476056234
 20
-39.84446683050101
 30
0.0
 40
5.0
 41
30.03556079984628
 71
     1
 72
     5
  1
{\fArial|b0|i0|c0|p34;SCREWS}
 73
     1
 44
1.0
1001
ACAD
1000
MTEXTBEGIN
1070
    73
1070
     1
1070
    44
1040
1.0
1070
    74
1070
     0
1000
MTEXTEND
  0
LINE
  5
EB
330
DD
100
AcDbEntity
  8
0
 62
     7
100
AcDbLine
 10
117.9778035529668
 20
-21.22133728518264
 30
0.0
 11
138.335703353383
 21
-3.005332937282219
 31
0.0
  0
LINE
  5
EC
330
DD
100
AcDbEntity
  8
0
 62
     7
100
AcDbLine
 10
138.335703353383
 20
-3.005332937282219
 30
0.0
 11
142.454008693403
 21
-3.005332937282219
 31
0.0
  0
MTEXT
  5
ED
330
DD
100
AcDbEntity
  8
0
 62
     7
100
AcDbMText
 10
143.0422429851278
 20
0.1642339645859465
 30
0.0
 40
5.0
 41
30.03556079984628
 71
     1
 72
     5
  1
{\fArial|b0|i0|c0|p34;SINK}
 73
     1
 44
1.0
1001
ACAD
1000
MTEXTBEGIN
1070
    73
1070
     1
1070
    44
1040
1.0
1070
    74
1070
     0
1000
MTEXTEND
  0
ENDBLK
  5
EE
330
DD
100
AcDbEntity
  8
0
 62
     7
100
AcDbBlockEnd
  0
BLOCK
  5
F2
330
EF
100
AcDbEntity
  8
0
 62
     7
100
AcDbBlockBegin
  2
A$C050E5E0D
 70
     0
 10
0.0
 20
0.0
 30
0.0
  3
A$C050E5E0D
  1

  0
ARC
  5
F3
330
EF
100
AcDbEntity
  8
0
 62
     7
100
AcDbCircle
 10
526.4785777207653
 20
330.3660798956153
 30
0.0
 40
100.0
100
AcDbArc
 50
96.59634410750044
 51
174.7649444340072
  0
ARC
  5
F4
330
EF
100
AcDbEntity
  8
0
 62
     7
100
AcDbCircle
 10
687.301849786374
 20
330.3660798956153
 30
0.0
 40
100.0
100
AcDbArc
 50
5.235055565992813
 51
83.40365589249953
  0
ARC
  5
F5
330
EF
100
AcDbEntity
  8
0
 62
     7
100
AcDbCircle
 10
687.301849786374
 20
330.3660798956153
 30
0.0
 40
125.0
100
AcDbArc
 50
5.235055565992813
 51
83.40365589249953
  0
ARC
  5
F6
330
EF
100
AcDbEntity
  8
0
 62
     7
100
AcDbCircle
 10
285.3018497863741
 20
330.3660798956153
 30
0.0
 40
100.0
100
AcDbArc
 50
5.235055565992813
 51
83.40365589249953
  0
ARC
  5
F7
330
EF
100
AcDbEntity
  8
0
 62
     7
100
AcDbCircle
 10
124.4785777207653
 20
330.3660798956153
 30
0.0
 40
100.0
100
AcDbArc
 50
96.59634410750044
 51
174.7649444340072
  0
ARC
  5
F8
330
EF
100
AcDbEntity
  8
0
 62
     7
100
AcDbCircle
 10
124.4785777207653
 20
330.3660798956153
 30
0.0
 40
125.0
100
AcDbArc
 50
96.59634410750044
 51
174.7649444340072
  0
ARC
  5
F9
330
EF
100
AcDbEntity
  8
0
 62
     7
100
AcDbCircle
 10
285.3018497863741
 20
129.6339435148147
 30
0.0
 40
100.0
100
AcDbArc
 50
276.5963441075005
 51
354.7649444340074
  0
LINE
  5
FA
330
EF
100
AcDbEntity
  8
0
 62
     7
100
AcDbLine
 10
204.8902137535697
 20
0.0000117052131827
 30
0.0
 11
606.8902137535697
 21
0.0000117052131827
 31
0.0
  0
ARC
  5
FB
330
EF
100
AcDbEntity
  8
0
 62
     7
100
AcDbCircle
 10
124.4785777207653
 20
129.6339435148147
 30
0.0
 40
100.0
100
AcDbArc
 50
185.2350555659928
 51
263.4036558924996
  0
ARC
  5
FC
330
EF
100
AcDbEntity
  8
0
 62
     7
100
AcDbCircle
 10
124.4785777207653
 20
129.6339435148147
 30
0.0
 40
125.0
100
AcDbArc
 50
185.2350555659928
 51
263.4036558924996
  0
ARC
  5
FD
330
EF
100
AcDbEntity
  8
0
 62
     7
100
AcDbCircle
 10
204.8902137535697
 20
825.0000117052149
 30
0.0
 40
800.0
100
AcDbArc
 50
263.4036558924996
 51
276.5963441075005
  0
ARC
  5
FE
330
EF
100
AcDbEntity
  8
0
 62
     7
100
AcDbCircle
 10
204.8902137535697
 20
825.0000117052149
 30
0.0
 40
825.0
100
AcDbArc
 50
263.4036558924996
 51
270.0
  0
ARC
  5
FF
330
EF
100
AcDbEntity
  8
0
 62
     7
100
AcDbCircle
 10
1219.89021375357
 20
230.000011705215
 30
0.0
 40
1200.0
100
AcDbArc
 50
174.7649444340072
 51
185.2350555659928
  0
ARC
  5
100
330
EF
100
AcDbEntity
  8
0
 62
     7
100
AcDbCircle
 10
1219.89021375357
 20
230.000011705215
 30
0.0
 40
1225.0
100
AcDbArc
 50
174.7649444340072
 51
185.2350555659928
  0
ARC
  5
101
330
EF
100
AcDbEntity
  8
0
 62
     7
100
AcDbCircle
 10
687.301849786374
 20
129.6339435148147
 30
0.0
 40
100.0
100
AcDbArc
 50
276.5963441075005
 51
354.7649444340074
  0
ARC
  5
102
330
EF
100
AcDbEntity
  8
0
 62
     7
100
AcDbCircle
 10
687.301849786374
 20
129.6339435148147
 30
0.0
 40
125.0
100
AcDbArc
 50
276.5963441075005
 51
354.7649444340074
  0
ARC
  5
103
330
EF
100
AcDbEntity
  8
0
 62
     7
100
AcDbCircle
 10
526.4785777207653
 20
129.6339435148147
 30
0.0
 40
100.0
100
AcDbArc
 50
185.2350555659928
 51
263.4036558924996
  0
ARC
  5
104
330
EF
100
AcDbEntity
  8
0
 62
     7
100
AcDbCircle
 10
606.8902137535697
 20
825.0000117052149
 30
0.0
 40
800.0
100
AcDbArc
 50
263.4036558924996
 51
276.5963441075005
  0
ARC
  5
105
330
EF
100
AcDbEntity
  8
0
 62
     7
100
AcDbCircle
 10
606.8902137535697
 20
825.0000117052149
 30
0.0
 40
825.0
100
AcDbArc
 50
270.0
 51
276.5963441075005
  0
ARC
  5
106
330
EF
100
AcDbEntity
  8
0
 62
     7
100
AcDbCircle
 10
1621.89021375357
 20
230.000011705215
 30
0.0
 40
1200.0
100
AcDbArc
 50
174.7649444340072
 51
185.2350555659928
  0
ARC
  5
107
330
EF
100
AcDbEntity
  8
0
 62
     7
100
AcDbCircle
 10
-810.10978624643
 20
230.000011705215
 30
0.0
 40
1200.0
100
AcDbArc
 50
354.7649444340074
 51
5.235055565992813
  0
ARC
  5
108
330
EF
100
AcDbEntity
  8
0
 62
     7
100
AcDbCircle
 10
-408.1097862464303
 20
230.000011705215
 30
0.0
 40
1200.0
100
AcDbArc
 50
354.7649444340074
 51
5.235055565992813
  0
ARC
  5
109
330
EF
100
AcDbEntity
  8
0
 62
     7
100
AcDbCircle
 10
-408.1097862464303
 20
230.000011705215
 30
0.0
 40
1225.0
100
AcDbArc
 50
354.7649444340074
 51
5.235055565992813
  0
LINE
  5
10A
330
EF
100
AcDbEntity
  8
0
 62
     7
100
AcDbLine
 10
606.8902137535697
 20
460.0000117052148
 30
0.0
 11
204.8902137535697
 21
460.0000117052148
 31
0.0
  0
ARC
  5
10B
330
EF
100
AcDbEntity
  8
0
 62
     7
100
AcDbCircle
 10
204.8902137535697
 20
-364.999988294785
 30
0.0
 40
800.0
100
AcDbArc
 50
83.40365589249953
 51
96.59634410750044
  0
ARC
  5
10C
330
EF
100
AcDbEntity
  8
0
 62
     7
100
AcDbCircle
 10
204.8902137535697
 20
-364.999988294785
 30
0.0
 40
825.0
100
AcDbArc
 50
90.0
 51
96.59634410750044
  0
ARC
  5
10D
330
EF
100
AcDbEntity
  8
0
 62
     7
100
AcDbCircle
 10
606.8902137535697
 20
-364.999988294785
 30
0.0
 40
800.0
100
AcDbArc
 50
83.40365589249953
 51
96.59634410750044
  0
ARC
  5
10E
330
EF
100
AcDbEntity
  8
0
 62
     7
100
AcDbCircle
 10
606.8902137535697
 20
-364.999988294785
 30
0.0
 40
825.0
100
AcDbArc
 50
83.40365589249953
 51
90.0
  0
CIRCLE
  5
10F
330
EF
100
AcDbEntity
  8
0
 62
     7
100
AcDbCircle
 10
204.8902137535697
 20
285.000011705215
 30
0.0
 40
55.0
  0
CIRCLE
  5
110
330
EF
100
AcDbEntity
  8
0
 62
     7
100
AcDbCircle
 10
204.8902137535697
 20
285.000011705215
 30
0.0
 40
45.0
  0
CIRCLE
  5
111
330
EF
100
AcDbEntity
  8
0
 62
     7
100
AcDbCircle
 10
606.8902137535697
 20
285.000011705215
 30
0.0
 40
55.0
  0
CIRCLE
  5
112
330
EF
100
AcDbEntity
  8
0
 62
     7
100
AcDbCircle
 10
606.8902137535697
 20
285.000011705215
 30
0.0
 40
45.0
  0
ENDBLK
  5
113
330
EF
100
AcDbEntity
  8
0
 62
     7
100
AcDbBlockEnd
  0
BLOCK
  5
1AC
330
1AB
100
AcDbEntity
  8
0
100
AcDbBlockBegin
  2
*D4
 70
     1
 10
0.0
 20
0.0
 30
0.0
  3
*D4
  1

  0
LINE
  5
2E4
330
1AB
100
AcDbEntity
  8
0
 62
     0
370
    -2
100
AcDbLine
 10
350.6441830350826
 20
424.2803909545035
 30
0.0
 11
27.67843276385382
 21
424.2803909545036
 31
0.0
  0
LINE
  5
2E5
330
1AB
100
AcDbEntity
  8
0
 62
     0
370
    -2
100
AcDbLine
 10
360.3746315800608
 20
1.580390954501631
 30
0.0
 11
27.67843276385372
 21
1.580390954501725
 31
0.0
  0
LINE
  5
2E6
330
1AB
100
AcDbEntity
  8
0
 62
     0
370
    -2
100
AcDbLine
 10
37.67843276385383
 20
414.2803909545035
 30
0.0
 11
37.67843276385379
 21
239.5970576211693
 31
0.0
  0
LINE
  5
2E7
330
1AB
100
AcDbEntity
  8
0
 62
     0
370
    -2
100
AcDbLine
 10
37.67843276385374
 20
11.58039095450172
 30
0.0
 11
37.67843276385379
 21
186.263724287836
 31
0.0
  0
SOLID
  5
2E8
330
1AB
100
AcDbEntity
  8
0
 62
     0
100
AcDbTrace
 10
36.01176609718717
 20
414.2803909545035
 30
0.0
 11
39.3450994305205
 21
414.2803909545035
 31
0.0
 12
37.67843276385383
 22
424.2803909545036
 32
0.0
 13
37.67843276385383
 23
424.2803909545036
 33
0.0
  0
SOLID
  5
2E9
330
1AB
100
AcDbEntity
  8
0
 62
     0
100
AcDbTrace
 10
36.01176609718708
 20
11.58039095450172
 30
0.0
 11
39.34509943052041
 21
11.58039095450172
 31
0.0
 12
37.67843276385374
 22
1.580390954501722
 32
0.0
 13
37.67843276385374
 23
1.580390954501722
 33
0.0
  0
MTEXT
  5
2EA
330
1AB
100
AcDbEntity
  8
0
 62
     0
100
AcDbMText
 10
37.67843276385376
 20
212.9303909545027
 30
0.0
 40
20.0
 41
0.0
 71
     5
 72
     1
  1
\A1;16{\H0.800000x;\S5/8;}"
 73
     1
 44
1.0
1001
ACAD
1000
MTEXTBEGIN
1070
    73
1070
     1
1070
    44
1040
1.0
1070
    74
1070
     0
1000
MTEXTEND
  0
POINT
  5
2EB
330
1AB
100
AcDbEntity
  8
DEFPOINTS
 62
     0
100
AcDbPoint
 10
353.7691830350826
 20
424.2803909545035
 30
0.0
  0
POINT
  5
2EC
330
1AB
100
AcDbEntity
  8
DEFPOINTS
 62
     0
100
AcDbPoint
 10
363.4996315800608
 20
1.580390954501631
 30
0.0
  0
POINT
  5
2ED
330
1AB
100
AcDbEntity
  8
DEFPOINTS
 62
     0
100
AcDbPoint
 10
37.67843276385374
 20
1.580390954501722
 30
0.0
  0
ENDBLK
  5
1AD
330
1AB
100
AcDbEntity
  8
0
100
AcDbBlockEnd
  0
BLOCK
  5
1B9
330
1B8
100
AcDbEntity
  8
0
100
AcDbBlockBegin
  2
*D5
 70
     1
 10
0.0
 20
0.0
 30
0.0
  3
*D5
  1

  0
LINE
  5
2EE
330
1B8
100
AcDbEntity
  8
0
 62
     0
370
    -2
100
AcDbLine
 10
870.2759071057696
 20
142.4168119702647
 30
0.0
 11
871.1972498793821
 21
157.4037420846314
 31
0.0
  0
LINE
  5
2EF
330
1B8
100
AcDbEntity
  8
0
 62
     0
370
    -2
100
AcDbLine
 10
876.6139415755704
 20
142.0271723167068
 30
0.0
 11
877.5352843491829
 21
157.0141024310737
 31
0.0
  0
LINE
  5
2F0
330
1B8
100
AcDbEntity
  8
0
 62
     0
370
    -2
100
AcDbLine
 10
860.6024874803932
 20
148.0361911929112
 30
0.0
 11
850.6213308350387
 21
148.6497969465456
 31
0.0
  0
LINE
  5
2F1
330
1B8
100
AcDbEntity
  8
0
 62
     0
370
    -2
100
AcDbLine
 10
886.9028352409033
 20
146.4193400320848
 30
0.0
 11
896.8839918862578
 21
145.8057342784504
 31
0.0
  0
SOLID
  5
2F2
330
1B8
100
AcDbEntity
  8
0
 62
     0
100
AcDbTrace
 10
860.704755105999
 20
149.6997173004703
 30
0.0
 11
860.5002198547875
 21
146.3726650853521
 31
0.0
 12
870.583644125748
 22
147.4225854392769
 32
0.0
 13
870.583644125748
 23
147.4225854392769
 33
0.0
  0
SOLID
  5
2F3
330
1B8
100
AcDbEntity
  8
0
 62
     0
100
AcDbTrace
 10
887.0051028665089
 20
148.0828661396439
 30
0.0
 11
886.8005676152975
 21
144.7558139245257
 31
0.0
 12
876.9216785955487
 22
147.0329457857191
 32
0.0
 13
876.9216785955487
 23
147.0329457857191
 33
0.0
  0
MTEXT
  5
2F4
330
1B8
100
AcDbEntity
  8
0
 62
     0
100
AcDbMText
 10
916.2173252195911
 20
172.4724009451171
 30
0.0
 40
20.0
 41
0.0
 71
     5
 72
     1
  1
\A1;{\H0.800000x;\S1/4;}"
 73
     1
 44
1.0
1001
ACAD
1000
MTEXTBEGIN
1070
    73
1070
     1
1070
    44
1040
1.0
1070
    74
1070
     0
1000
MTEXTEND
  0
POINT
  5
2F5
330
1B8
100
AcDbEntity
  8
DEFPOINTS
 62
     0
100
AcDbPoint
 10
870.0841553077591
 20
139.2977005185914
 30
0.0
  0
POINT
  5
2F6
330
1B8
100
AcDbEntity
  8
DEFPOINTS
 62
     0
100
AcDbPoint
 10
876.4221897775597
 20
138.9080608650336
 30
0.0
  0
POINT
  5
2F7
330
1B8
100
AcDbEntity
  8
DEFPOINTS
 62
     0
100
AcDbPoint
 10
876.9216785955487
 20
147.0329457857191
 30
0.0
  0
ENDBLK
  5
1BA
330
1B8
100
AcDbEntity
  8
0
100
AcDbBlockEnd
  0
BLOCK
  5
1C6
330
1C5
100
AcDbEntity
  8
0
100
AcDbBlockBegin
  2
*D6
 70
     1
 10
0.0
 20
0.0
 30
0.0
  3
*D6
  1

  0
LINE
  5
2F8
330
1C5
100
AcDbEntity
  8
0
 62
     0
370
    -2
100
AcDbLine
 10
93.99535786519122
 20
216.0553909545035
 30
0.0
 11
93.99535786519122
 21
454.3826648994357
 31
0.0
  0
LINE
  5
2F9
330
1C5
100
AcDbEntity
  8
0
 62
     0
370
    -2
100
AcDbLine
 10
878.695357865191
 20
216.0553909545047
 30
0.0
 11
878.695357865191
 21
454.3826648994357
 31
0.0
  0
LINE
  5
2FA
330
1C5
100
AcDbEntity
  8
0
 62
     0
370
    -2
100
AcDbLine
 10
103.9953578651912
 20
444.3826648994356
 30
0.0
 11
868.6953578651909
 21
444.3826648994356
 31
0.0
  0
SOLID
  5
2FB
330
1C5
100
AcDbEntity
  8
0
 62
     0
100
AcDbTrace
 10
103.9953578651912
 20
446.0493315661024
 30
0.0
 11
103.9953578651912
 21
442.7159982327689
 31
0.0
 12
93.99535786519122
 22
444.3826648994356
 32
0.0
 13
93.99535786519122
 23
444.3826648994356
 33
0.0
  0
SOLID
  5
2FC
330
1C5
100
AcDbEntity
  8
0
 62
     0
100
AcDbTrace
 10
868.6953578651909
 20
446.0493315661024
 30
0.0
 11
868.6953578651909
 21
442.7159982327689
 31
0.0
 12
878.695357865191
 22
444.3826648994356
 32
0.0
 13
878.695357865191
 23
444.3826648994356
 33
0.0
  0
MTEXT
  5
2FD
330
1C5
100
AcDbEntity
  8
0
 62
     0
100
AcDbMText
 10
486.3453578651911
 20
471.0493315661024
 30
0.0
 40
20.0
 41
0.0
 71
     5
 72
     1
  1
\A1;30{\H0.800000x;\S7/8;}"
 73
     1
 44
1.0
1001
ACAD
1000
MTEXTBEGIN
1070
    73
1070
     1
1070
    44
1040
1.0
1070
    74
1070
     0
1000
MTEXTEND
  0
POINT
  5
2FE
330
1C5
100
AcDbEntity
  8
DEFPOINTS
 62
     0
100
AcDbPoint
 10
93.99535786519122
 20
212.9303909545035
 30
0.0
  0
POINT
  5
2FF
330
1C5
100
AcDbEntity
  8
DEFPOINTS
 62
     0
100
AcDbPoint
 10
878.695357865191
 20
212.9303909545047
 30
0.0
  0
POINT
  5
300
330
1C5
100
AcDbEntity
  8
DEFPOINTS
 62
     0
100
AcDbPoint
 10
878.695357865191
 20
444.3826648994356
 30
0.0
  0
ENDBLK
  5
1C7
330
1C5
100
AcDbEntity
  8
0
100
AcDbBlockEnd
  0
ENDSEC
  0
SECTION
  2
ENTITIES
  0
ARC
  5
17D
330
6C
100
AcDbEntity
  8
0
 62
     7
100
AcDbCircle
 10
767.7569938979964
 20
313.2964591449036
 30
0.0
 40
100.0
100
AcDbArc
 50
5.235055565990434
 51
83.40365589249953
  0
ARC
  5
17E
330
6C
100
AcDbEntity
  8
0
 62
     7
100
AcDbCircle
 10
767.7569938979964
 20
313.2964591449036
 30
0.0
 40
106.35
100
AcDbArc
 50
5.235055565990434
 51
83.40365589249953
  0
ARC
  5
17F
330
6C
100
AcDbEntity
  8
0
  6
CENTER2
 62
     7
 48
20.0
100
AcDbCircle
 10
204.9337218323871
 20
313.2964591449036
 30
0.0
 40
100.0
100
AcDbArc
 50
96.59634410750044
 51
174.7649444340095
  0
ARC
  5
180
330
6C
100
AcDbEntity
  8
0
 62
     7
100
AcDbCircle
 10
204.9337218323871
 20
313.2964591449036
 30
0.0
 40
106.35
100
AcDbArc
 50
96.59634410750044
 51
174.7649444340095
  0
LINE
  5
181
330
6C
100
AcDbEntity
  8
0
  6
CENTER2
 62
     7
 48
20.0
100
AcDbLine
 10
285.345357865191
 20
7.930390954501539
 30
0.0
 11
687.345357865191
 21
7.930390954501539
 31
0.0
  0
LINE
  5
182
330
6C
100
AcDbEntity
  8
0
 62
     7
100
AcDbLine
 10
285.345357865191
 20
1.580390954501631
 30
0.0
 11
687.345357865191
 21
1.580390954501631
 31
0.0
  0
ARC
  5
183
330
6C
100
AcDbEntity
  8
0
  6
CENTER2
 62
     7
 48
20.0
100
AcDbCircle
 10
204.9337218323871
 20
112.5643227641047
 30
0.0
 40
100.0
100
AcDbArc
 50
185.2350555659904
 51
263.4036558924996
  0
ARC
  5
184
330
6C
100
AcDbEntity
  8
0
 62
     7
100
AcDbCircle
 10
204.9337218323871
 20
112.5643227641047
 30
0.0
 40
106.35
100
AcDbArc
 50
185.2350555659904
 51
263.4036558924996
  0
ARC
  5
185
330
6C
100
AcDbEntity
  8
0
  6
CENTER2
 62
     7
 48
20.0
100
AcDbCircle
 10
285.345357865191
 20
807.9303909545032
 30
0.0
 40
800.0
100
AcDbArc
 50
263.4036558924996
 51
270.0
  0
ARC
  5
186
330
6C
100
AcDbEntity
  8
0
 62
     7
100
AcDbCircle
 10
285.345357865191
 20
807.9303909545032
 30
0.0
 40
806.3500000000001
100
AcDbArc
 50
263.4036558924996
 51
270.0
  0
ARC
  5
187
330
6C
100
AcDbEntity
  8
0
  6
CENTER2
 62
     7
 48
20.0
100
AcDbCircle
 10
1300.345357865191
 20
212.9303909545034
 30
0.0
 40
1200.0
100
AcDbArc
 50
174.7649444340095
 51
185.2350555659904
  0
ARC
  5
188
330
6C
100
AcDbEntity
  8
0
 62
     7
100
AcDbCircle
 10
1300.345357865191
 20
212.9303909545034
 30
0.0
 40
1206.35
100
AcDbArc
 50
174.7649444340095
 51
185.2350555659904
  0
ARC
  5
189
330
6C
100
AcDbEntity
  8
0
  6
CENTER2
 62
     7
 48
20.0
100
AcDbCircle
 10
767.7569938979964
 20
112.5643227641047
 30
0.0
 40
100.0
100
AcDbArc
 50
276.5963441075005
 51
354.7649444340096
  0
ARC
  5
18A
330
6C
100
AcDbEntity
  8
0
 62
     7
100
AcDbCircle
 10
767.7569938979964
 20
112.5643227641047
 30
0.0
 40
106.35
100
AcDbArc
 50
276.5963441075005
 51
354.7649444340096
  0
ARC
  5
18B
330
6C
100
AcDbEntity
  8
0
 62
     7
100
AcDbCircle
 10
687.345357865191
 20
807.9303909545032
 30
0.0
 40
806.3500000000001
100
AcDbArc
 50
270.0
 51
276.5963441075005
  0
ARC
  5
18C
330
6C
100
AcDbEntity
  8
0
  6
CENTER2
 62
     7
 48
20.0
100
AcDbCircle
 10
-327.654642134809
 20
212.9303909545034
 30
0.0
 40
1200.0
100
AcDbArc
 50
354.7649444340096
 51
5.235055565990434
  0
ARC
  5
18D
330
6C
100
AcDbEntity
  8
0
 62
     7
100
AcDbCircle
 10
-327.654642134809
 20
212.9303909545034
 30
0.0
 40
1206.35
100
AcDbArc
 50
354.7649444340096
 51
5.235055565990434
  0
LINE
  5
18E
330
6C
100
AcDbEntity
  8
0
  6
CENTER2
 62
     7
 48
20.0
100
AcDbLine
 10
687.345357865191
 20
417.9303909545033
 30
0.0
 11
285.345357865191
 21
417.9303909545033
 31
0.0
  0
LINE
  5
18F
330
6C
100
AcDbEntity
  8
0
 62
     7
100
AcDbLine
 10
687.345357865191
 20
424.2803909545035
 30
0.0
 11
285.345357865191
 21
424.2803909545035
 31
0.0
  0
ARC
  5
190
330
6C
100
AcDbEntity
  8
0
  6
CENTER2
 62
     7
 48
20.0
100
AcDbCircle
 10
285.345357865191
 20
-382.0696090454966
 30
0.0
 40
800.0
100
AcDbArc
 50
90.0
 51
96.59634410750044
  0
ARC
  5
191
330
6C
100
AcDbEntity
  8
0
 62
     7
100
AcDbCircle
 10
285.345357865191
 20
-382.0696090454966
 30
0.0
 40
806.3500000000001
100
AcDbArc
 50
90.0
 51
96.59634410750044
  0
ARC
  5
192
330
6C
100
AcDbEntity
  8
0
 62
     7
100
AcDbCircle
 10
687.345357865191
 20
-382.0696090454966
 30
0.0
 40
800.0
100
AcDbArc
 50
83.40365589249953
 51
90.0
  0
ARC
  5
193
330
6C
100
AcDbEntity
  8
0
 62
     7
100
AcDbCircle
 10
687.345357865191
 20
-382.0696090454966
 30
0.0
 40
806.3500000000001
100
AcDbArc
 50
83.40365589249953
 51
90.0
  0
INSERT
  5
194
330
6C
100
AcDbEntity
  8
0
 62
     7
100
AcDbBlockReference
  2
A$C050E5E0D
 10
181.3187190515868
 20
277.1614154833595
 30
0.0
 41
0.1799999999998363
 42
0.1799999999998363
 43
0.1799999999998363
  0
CIRCLE
  5
195
330
6C
100
AcDbEntity
  8
0
 62
     7
100
AcDbCircle
 10
852.345357865191
 20
212.9303909545034
 30
0.0
 40
2.5
  0
CIRCLE
  5
196
330
6C
100
AcDbEntity
  8
0
 62
     7
100
AcDbCircle
 10
486.345357865191
 20
397.9303909545034
 30
0.0
 40
2.5
  0
CIRCLE
  5
197
330
6C
100
AcDbEntity
  8
0
 62
     7
100
AcDbCircle
 10
486.345357865191
 20
212.9303909545025
 30
0.0
 40
2.5
  0
CIRCLE
  5
198
330
6C
100
AcDbEntity
  8
0
 62
     7
100
AcDbCircle
 10
486.345357865191
 20
27.93039095450154
 30
0.0
 40
2.5
  0
CIRCLE
  5
199
330
6C
100
AcDbEntity
  8
0
 62
     7
100
AcDbCircle
 10
120.345357865191
 20
212.9303909545034
 30
0.0
 40
2.5
  0
INSERT
  5
19A
330
6C
100
AcDbEntity
  8
0
 62
     7
100
AcDbBlockReference
  2
A$C40C2364E
 10
620.6795322589638
 20
322.3355306110016
 30
0.0
 41
0.9421147827911228
 42
0.9421147827911228
 43
0.9421147827911228
  0
MTEXT
  5
19B
330
6C
100
AcDbEntity
  8
0
 62
     7
100
AcDbMText
 10
495.698589992526
 20
146.8013632111474
 30
0.0
 40
7.0
 41
411.7917988754052
 71
     1
 72
     5
  1
{\fArial|b1|i0|c0|p34;Use outside line for reveal mount cut:\P\fArial|b0|i0|c0|p34;sink rim is 1/4" revealed from the countertop opening.}
 73
     1
 44
1.0
1001
ACAD
1000
MTEXTBEGIN
1070
    73
1070
     1
1070
    44
1040
1.0
1070
    74
1070
     0
1000
MTEXTEND
  0
MTEXT
  5
19C
330
6C
100
AcDbEntity
  8
0
 62
     7
100
AcDbMText
 10
495.698589992526
 20
115.8432004098745
 30
0.0
 40
7.0
 41
411.7917988754052
 71
     1
 72
     5
  1
{\fArial|b1|i0|c0|p34;Use inside line for flush mount cut:\P\fArial|b0|i0|c0|p34;sink wall is flush to the edge of countertop opening.}
 73
     1
 44
1.0
1001
ACAD
1000
MTEXTBEGIN
1070
    73
1070
     1
1070
    44
1040
1.0
1070
    74
1070
     0
1000
MTEXTEND
  0
MTEXT
  5
19D
330
6C
100
AcDbEntity
  8
0
 62
     7
100
AcDbMText
 10
495.698589992526
 20
84.8850376086014
 30
0.0
 40
7.0
 41
411.7917988754052
 71
     1
 72
     5
  1
{\fArial|b0|i0|c0|p34;Please check actual template against  physical sink unit for most accurate cut!}
 73
     1
 44
1.0
1001
ACAD
1000
MTEXTBEGIN
1070
    73
1070
     1
1070
    44
1040
1.0
1070
    74
1070
     0
1000
MTEXTEND
  0
MTEXT
  5
19E
330
6C
100
AcDbEntity
  8
0
 62
     7
100
AcDbMText
 10
272.4610892496243
 20
23.25005648502957
 30
0.0
 40
5.0
 41
411.7917988754052
 71
     1
 72
     5
  1
{\fArial|b0|i0|c0|p34;Use this line for FLUSH MOUNT CUT.}
 73
     1
 44
1.0
1001
ACAD
1000
MTEXTBEGIN
1070
    73
1070
     1
1070
    44
1040
1.0
1070
    74
1070
     0
1000
MTEXTEND
  0
LEADER
  5
19F
330
6C
100
AcDbEntity
  8
0
 62
     7
100
AcDbLeader
  3
15
 76
     2
 10
392.6480306417838
 20
7.948150848111532
 30
0.0
 10
381.7866733425489
 20
17.40635532242645
 30
0.0
  0
ARC
  5
1A7
330
6C
100
AcDbEntity
  8
0
 62
     7
100
AcDbCircle
 10
687.345357865191
 20
807.9303909545032
 30
0.0
 40
800.0
100
AcDbArc
 50
270.0
 51
276.5963441075005
  0
MTEXT
  5
30C
102
{ACAD_XDICTIONARY
360
3DD
102
}
330
6C
100
AcDbEntity
  8
0
100
AcDbMText
 10
213.3755404584285
 20
254.8863752532347
 30
0.0
 40
8.0
 41
134.0584383407235
 71
     1
 72
     5
  1
\A1;{\fTimes New Roman|b0|i0|c0|p18;32 1/2"\U+00D718 1/8"\U+00D79"}
 73
     1
 44
1.0
1001
ACAD
1000
ACAD_MTEXT_COLUMN_INFO_BEGIN
1070
    75
1070
     2
1070
    79
1070
     0
1070
    76
1070
     1
1070
    78
1070
     0
1070
    48
1040
134.0584383407235
1070
    49
1040
1.0
1070
    50
1070
     1
1040
0.0
1000
ACAD_MTEXT_COLUMN_INFO_END
1000
MTEXTBEGIN
1070
    73
1070
     1
1070
    44
1040
1.0
1070
    74
1070
     0
1000
MTEXTEND
  0
MTEXT
  5
30D
330
6C
100
AcDbEntity
  8
0
100
AcDbMText
 10
238.4856194682902
 20
233.7417255003241
 30
0.0
 40
8.0
 41
112.6025479869927
 71
     1
 72
     5
  1
\A1;{\fTimes New Roman|b0|i0|c0|p18;M2201}
 73
     1
 44
1.0
1001
ACAD
1000
ACAD_MTEXT_COLUMN_INFO_BEGIN
1070
    75
1070
     2
1070
    79
1070
     0
1070
    76
1070
     1
1070
    78
1070
     0
1070
    48
1040
112.6025479869927
1070
    49
1040
1.0
1070
    50
1070
     1
1040
0.0
1000
ACAD_MTEXT_COLUMN_INFO_END
1000
MTEXTBEGIN
1070
    73
1070
     1
1070
    44
1040
1.0
1070
    74
1070
     0
1000
MTEXTEND
  0
ENDSEC
  0
SECTION
  2
OBJECTS
  0
DICTIONARY
  5
C
330
0
100
AcDbDictionary
281
     1
  3
ACAD_2007HEADERVARS_RT
350
3A4
  3
ACAD_COLOR
350
63
  3
ACAD_GROUP
350
D
  3
ACAD_LAYOUT
350
62
  3
ACAD_MATERIAL
350
10
  3
ACAD_MLEADERSTYLE
350
66
  3
ACAD_MLINESTYLE
350
5F
  3
ACAD_PLOTSETTINGS
350
61
  3
ACAD_PLOTSTYLENAME
350
E
  3
ACAD_SCALELIST
350
42
  3
ACAD_TABLESTYLE
350
64
  3
ACAD_VISUALSTYLE
350
29
  3
ACDB_RECOMPOSE_DATA
350
3A2
  3
AcDbVariableDictionary
350
230
  3
DWGPROPS
350
3A3
  0
DICTIONARY
  5
1F2
330
8
100
AcDbDictionary
280
     1
281
     1
  0
DICTIONARY
  5
144
330
2
100
AcDbDictionary
280
     1
281
     1
  3
ACAD_LAYERSTATES
360
145
  0
DICTIONARY
  5
79
330
78
100
AcDbDictionary
280
     1
281
     1
  3
ACAD_SORTENTS
360
7A
  0
DICTIONARY
  5
DE
330
DD
100
AcDbDictionary
280
     1
281
     1
  3
ACAD_SORTENTS
360
DF
  0
DICTIONARY
  5
F0
330
EF
100
AcDbDictionary
280
     1
281
     1
  3
ACAD_SORTENTS
360
F1
  0
DICTIONARY
  5
3DD
330
30C
100
AcDbDictionary
280
     1
281
     1
  3
ACAD_MTEXT_RT
360
3DE
  0
DICTIONARY
  5
3A4
102
{ACAD_REACTORS
330
C
102
}
330
C
100
AcDbDictionary
281
     1
  3
DIMFXL
350
3A5
  0
DICTIONARY
  5
63
102
{ACAD_REACTORS
330
C
102
}
330
C
100
AcDbDictionary
281
     1
  0
DICTIONARY
  5
D
102
{ACAD_REACTORS
330
C
102
}
330
C
100
AcDbDictionary
281
     1
  0
DICTIONARY
  5
62
102
{ACAD_REACTORS
330
C
102
}
330
C
100
AcDbDictionary
281
     1
  3
Model
350
6F
  3
布局1
350
6B
  3
布局2
350
73
  0
DICTIONARY
  5
10
102
{ACAD_REACTORS
330
C
102
}
330
C
100
AcDbDictionary
281
     1
  3
ByBlock
350
19
  3
ByLayer
350
11
  3
Global
350
21
  0
DICTIONARY
  5
66
102
{ACAD_REACTORS
330
C
102
}
330
C
100
AcDbDictionary
281
     1
  3
Standard
350
67
  0
DICTIONARY
  5
5F
102
{ACAD_REACTORS
330
C
102
}
330
C
100
AcDbDictionary
281
     1
  3
Standard
350
60
  0
DICTIONARY
  5
61
102
{ACAD_REACTORS
330
C
102
}
330
C
100
AcDbDictionary
281
     1
  0
ACDBDICTIONARYWDFLT
  5
E
102
{ACAD_REACTORS
330
C
102
}
330
C
100
AcDbDictionary
281
     1
  3
Normal
350
F
100
AcDbDictionaryWithDefault
340
F
  0
DICTIONARY
  5
42
102
{ACAD_REACTORS
330
C
102
}
330
C
100
AcDbDictionary
281
     1
  3
A0
350
43
  3
A1
350
44
  3
A2
350
45
  3
A3
350
46
  3
A4
350
47
  3
A5
350
48
  3
A6
350
49
  3
A7
350
4A
  3
A8
350
4B
  3
A9
350
4C
  3
B0
350
4D
  3
B1
350
4E
  3
B2
350
4F
  3
B3
350
50
  3
B4
350
51
  3
B5
350
52
  3
B6
350
53
  0
DICTIONARY
  5
64
102
{ACAD_REACTORS
330
C
102
}
330
C
100
AcDbDictionary
281
     1
  3
Standard
350
65
  0
DICTIONARY
  5
29
102
{ACAD_REACTORS
330
C
102
}
330
C
100
AcDbDictionary
281
     1
  3
2dWireframe
350
2F
  3
Basic
350
2E
  3
Brighten
350
35
  3
ColorChange
350
39
  3
Conceptual
350
32
  3
Dim
350
34
  3
EdgeColorOff
350
41
  3
Facepattern
350
38
  3
Flat
350
2A
  3
FlatWithEdges
350
2B
  3
Gouraud
350
2C
  3
GouraudWithEdges
350
2D
  3
Hidden
350
31
  3
JitterOff
350
3F
  3
Linepattern
350
37
  3
OverhangOff
350
40
  3
Realistic
350
33
  3
Shaded
350
3E
  3
Shaded with edges
350
3D
  3
Shades of Gray
350
3A
  3
Sketchy
350
3B
  3
Thicken
350
36
  3
Wireframe
350
30
  3
X-Ray
350
3C
  0
XRECORD
  5
3A2
102
{ACAD_REACTORS
330
C
102
}
330
C
100
AcDbXrecord
280
     1
 90
        1
330
65
330
30C
330
30D
  0
DICTIONARY
  5
230
102
{ACAD_REACTORS
330
C
102
}
330
C
100
AcDbDictionary
281
     1
  3
CANNOSCALE
350
234
  3
CMLEADERSTYLE
350
232
  3
CTABLESTYLE
350
231
  3
DIMASSOC
350
23B
  3
HIDETEXT
350
23A
  3
INDEXCTL
350
239
  3
LAYEREVAL
350
236
  3
LAYERNOTIFY
350
237
  3
LIGHTINGUNITS
350
235
  3
MSLTSCALE
350
233
  3
SORTENTS
350
238
  3
XCLIPFRAME
350
3A0
  0
XRECORD
  5
3A3
102
{ACAD_REACTORS
330
C
102
}
330
C
100
AcDbXrecord
280
     1
  1
DWGPROPS COOKIE
  2

  3

  4

  6

  7

  8
sales9
  9

300
=
301
=
302
=
303
=
304
=
305
=
306
=
307
=
308
=
309
=
 40
0.0140624652777778
 41
2456023.586240185
 42
2457169.704408056
  1

 90
        0
  0
DICTIONARY
  5
145
102
{ACAD_REACTORS
330
144
102
}
330
144
100
AcDbDictionary
281
     1
  0
SORTENTSTABLE
  5
7A
102
{ACAD_REACTORS
330
79
102
}
330
79
100
AcDbSortentsTable
330
78
  0
SORTENTSTABLE
  5
DF
102
{ACAD_REACTORS
330
DE
102
}
330
DE
100
AcDbSortentsTable
330
DD
  0
SORTENTSTABLE
  5
F1
102
{ACAD_REACTORS
330
F0
102
}
330
F0
100
AcDbSortentsTable
330
EF
  0
XRECORD
  5
3DE
102
{ACAD_REACTORS
330
3DD
102
}
330
3DD
100
AcDbXrecord
280
     1
 40
150004.0
  1
\A1;{\fTimes New Roman|b0|i0|c0|p18;32 1/2"\U+00D718 1/8"\U+00D79"}
  0
XRECORD
  5
3A5
102
{ACAD_REACTORS
330
3A4
102
}
330
3A4
100
AcDbXrecord
280
     1
 40
1.25
  0
LAYOUT
  5
6F
102
{ACAD_XDICTIONARY
360
3D9
102
}
102
{ACAD_REACTORS
330
62
102
}
330
62
100
AcDbPlotSettings
  1

  2
none_device
  4
Letter_(8.50_x_11.00_Inches)
  6

 40
6.349999904632567
 41
6.349999904632567
 42
6.350006103515625
 43
6.350006103515625
 44
215.8999938964844
 45
279.3999938964844
 46
0.0
 47
0.0
 48
0.0
 49
0.0
140
0.0
141
0.0
142
1.0
143
292.1684824847728
 70
 11952
 72
     0
 73
     1
 74
     0
  7

 75
     0
147
0.0034226826641101
148
30136.39314825728
149
15258.25048000944
100
AcDbLayout
  1
Model
 70
     1
 71
     0
 10
0.0
 20
0.0
 11
12.0
 21
9.0
 12
0.0
 22
0.0
 32
0.0
 14
0.0
 24
0.0
 34
0.0
 15
0.0
 25
0.0
 35
0.0
146
0.0
 13
0.0
 23
0.0
 33
0.0
 16
1.0
 26
0.0
 36
0.0
 17
0.0
 27
1.0
 37
0.0
 76
     0
330
6C
331
57
1001
ACAD_PSEXT
1000
无
1000
无
1000
不可用
1000
在选择新的绘图仪配置名称之前，不能打印该布局。
1070
     0
  0
LAYOUT
  5
6B
102
{ACAD_XDICTIONARY
360
3D7
102
}
102
{ACAD_REACTORS
330
62
102
}
330
62
100
AcDbPlotSettings
  1

  2
Canon MF4360-4390
  4

  6

 40
0.0
 41
0.0
 42
0.0
 43
0.0
 44
0.0
 45
0.0
 46
0.0
 47
0.0
 48
0.0
 49
0.0
140
0.0
141
0.0
142
1.0
143
1.0
 70
   688
 72
     0
 73
     0
 74
     5
  7

 75
    16
147
1.0
148
0.0
149
0.0
100
AcDbLayout
  1
布局1
 70
     1
 71
     1
 10
0.0
 20
0.0
 11
12.0
 21
9.0
 12
0.0
 22
0.0
 32
0.0
 14
1.000000000000000E+20
 24
1.000000000000000E+20
 34
1.000000000000000E+20
 15
-1.000000000000000E+20
 25
-1.000000000000000E+20
 35
-1.000000000000000E+20
146
0.0
 13
0.0
 23
0.0
 33
0.0
 16
1.0
 26
0.0
 36
0.0
 17
0.0
 27
1.0
 37
0.0
 76
     0
330
68
  0
LAYOUT
  5
73
102
{ACAD_XDICTIONARY
360
3DB
102
}
102
{ACAD_REACTORS
330
62
102
}
330
62
100
AcDbPlotSettings
  1

  2
Canon MF4360-4390
  4

  6

 40
0.0
 41
0.0
 42
0.0
 43
0.0
 44
0.0
 45
0.0
 46
0.0
 47
0.0
 48
0.0
 49
0.0
140
0.0
141
0.0
142
1.0
143
1.0
 70
   688
 72
     0
 73
     0
 74
     5
  7

 75
    16
147
1.0
148
0.0
149
0.0
100
AcDbLayout
  1
布局2
 70
     1
 71
     2
 10
0.0
 20
0.0
 11
12.0
 21
9.0
 12
0.0
 22
0.0
 32
0.0
 14
0.0
 24
0.0
 34
0.0
 15
0.0
 25
0.0
 35
0.0
146
0.0
 13
0.0
 23
0.0
 33
0.0
 16
1.0
 26
0.0
 36
0.0
 17
0.0
 27
1.0
 37
0.0
 76
     0
330
70
  0
MATERIAL
  5
19
102
{ACAD_XDICTIONARY
360
1A
102
}
102
{ACAD_REACTORS
330
10
102
}
330
10
100
AcDbMaterial
  1
ByBlock
 72
     0
 43
0.0208333333333333
 43
0.0
 43
0.0
 43
0.0
 43
0.0
 43
0.0208333333333333
 43
0.0
 43
0.0
 43
0.0
 43
0.0
 43
1.0
 43
0.0
 43
0.0
 43
0.0
 43
0.0
 43
1.0
 77
     0
 47
0.0208333333333333
 47
0.0
 47
0.0
 47
0.0
 47
0.0
 47
0.0208333333333333
 47
0.0
 47
0.0
 47
0.0
 47
0.0
 47
1.0
 47
0.0
 47
0.0
 47
0.0
 47
0.0
 47
1.0
171
     0
 49
0.0208333333333333
 49
0.0
 49
0.0
 49
0.0
 49
0.0
 49
0.0208333333333333
 49
0.0
 49
0.0
 49
0.0
 49
0.0
 49
1.0
 49
0.0
 49
0.0
 49
0.0
 49
0.0
 49
1.0
175
     0
142
0.0208333333333333
142
0.0
142
0.0
142
0.0
142
0.0
142
0.0208333333333333
142
0.0
142
0.0
142
0.0
142
0.0
142
1.0
142
0.0
142
0.0
142
0.0
142
0.0
142
1.0
179
     0
144
0.0208333333333333
144
0.0
144
0.0
144
0.0
144
0.0
144
0.0208333333333333
144
0.0
144
0.0
144
0.0
144
0.0
144
1.0
144
0.0
144
0.0
144
0.0
144
0.0
144
1.0
147
0.0208333333333333
147
0.0
147
0.0
147
0.0
147
0.0
147
0.0208333333333333
147
0.0
147
0.0
147
0.0
147
0.0
147
1.0
147
0.0
147
0.0
147
0.0
147
0.0
147
1.0
  0
MATERIAL
  5
11
102
{ACAD_XDICTIONARY
360
12
102
}
102
{ACAD_REACTORS
330
10
102
}
330
10
100
AcDbMaterial
  1
ByLayer
 72
     0
 43
0.0208333333333333
 43
0.0
 43
0.0
 43
0.0
 43
0.0
 43
0.0208333333333333
 43
0.0
 43
0.0
 43
0.0
 43
0.0
 43
1.0
 43
0.0
 43
0.0
 43
0.0
 43
0.0
 43
1.0
 77
     0
 47
0.0208333333333333
 47
0.0
 47
0.0
 47
0.0
 47
0.0
 47
0.0208333333333333
 47
0.0
 47
0.0
 47
0.0
 47
0.0
 47
1.0
 47
0.0
 47
0.0
 47
0.0
 47
0.0
 47
1.0
171
     0
 49
0.0208333333333333
 49
0.0
 49
0.0
 49
0.0
 49
0.0
 49
0.0208333333333333
 49
0.0
 49
0.0
 49
0.0
 49
0.0
 49
1.0
 49
0.0
 49
0.0
 49
0.0
 49
0.0
 49
1.0
175
     0
142
0.0208333333333333
142
0.0
142
0.0
142
0.0
142
0.0
142
0.0208333333333333
142
0.0
142
0.0
142
0.0
142
0.0
142
1.0
142
0.0
142
0.0
142
0.0
142
0.0
142
1.0
179
     0
144
0.0208333333333333
144
0.0
144
0.0
144
0.0
144
0.0
144
0.0208333333333333
144
0.0
144
0.0
144
0.0
144
0.0
144
1.0
144
0.0
144
0.0
144
0.0
144
0.0
144
1.0
147
0.0208333333333333
147
0.0
147
0.0
147
0.0
147
0.0
147
0.0208333333333333
147
0.0
147
0.0
147
0.0
147
0.0
147
1.0
147
0.0
147
0.0
147
0.0
147
0.0
147
1.0
  0
MATERIAL
  5
21
102
{ACAD_XDICTIONARY
360
22
102
}
102
{ACAD_REACTORS
330
10
102
}
330
10
100
AcDbMaterial
  1
Global
 72
     0
 43
0.0208333333333333
 43
0.0
 43
0.0
 43
0.0
 43
0.0
 43
0.0208333333333333
 43
0.0
 43
0.0
 43
0.0
 43
0.0
 43
1.0
 43
0.0
 43
0.0
 43
0.0
 43
0.0
 43
1.0
 77
     0
 47
0.0208333333333333
 47
0.0
 47
0.0
 47
0.0
 47
0.0
 47
0.0208333333333333
 47
0.0
 47
0.0
 47
0.0
 47
0.0
 47
1.0
 47
0.0
 47
0.0
 47
0.0
 47
0.0
 47
1.0
171
     0
 49
0.0208333333333333
 49
0.0
 49
0.0
 49
0.0
 49
0.0
 49
0.0208333333333333
 49
0.0
 49
0.0
 49
0.0
 49
0.0
 49
1.0
 49
0.0
 49
0.0
 49
0.0
 49
0.0
 49
1.0
175
     0
142
0.0208333333333333
142
0.0
142
0.0
142
0.0
142
0.0
142
0.0208333333333333
142
0.0
142
0.0
142
0.0
142
0.0
142
1.0
142
0.0
142
0.0
142
0.0
142
0.0
142
1.0
179
     0
144
0.0208333333333333
144
0.0
144
0.0
144
0.0
144
0.0
144
0.0208333333333333
144
0.0
144
0.0
144
0.0
144
0.0
144
1.0
144
0.0
144
0.0
144
0.0
144
0.0
144
1.0
147
0.0208333333333333
147
0.0
147
0.0
147
0.0
147
0.0
147
0.0208333333333333
147
0.0
147
0.0
147
0.0
147
0.0
147
1.0
147
0.0
147
0.0
147
0.0
147
0.0
147
1.0
  0
MLEADERSTYLE
  5
67
102
{ACAD_REACTORS
330
66
102
}
330
66
100
AcDbMLeaderStyle
170
     2
171
     1
172
     0
 90
        2
 40
0.0
 41
0.0
173
     1
 91
-1056964608
340
5B
 92
       -2
290
     1
 42
0.09
291
     1
 43
0.36
  3
Standard
 44
0.18
300

342
55
174
     1
178
     6
175
     1
176
     0
 93
-1056964608
 45
0.18
292
     0
297
     0
 46
0.18
 94
-1056964608
 47
1.0
 49
1.0
140
1.0
293
     1
141
0.0
294
     1
177
     0
142
1.0
295
     0
296
     0
143
0.125
1001
ACAD_MLEADERVER
1070
     2
  0
MLINESTYLE
  5
60
102
{ACAD_REACTORS
330
5F
102
}
330
5F
100
AcDbMlineStyle
  2
STANDARD
 70
     0
  3

 62
   256
 51
90.0
 52
90.0
 71
     2
 49
0.5
 62
   256
  6
BYLAYER
 49
-0.5
 62
   256
  6
BYLAYER
  0
ACDBPLACEHOLDER
  5
F
102
{ACAD_REACTORS
330
E
102
}
330
E
  0
SCALE
  5
43
102
{ACAD_REACTORS
330
42
102
}
330
42
100
AcDbScale
 70
     0
300
1:1
140
1.0
141
1.0
290
     1
  0
SCALE
  5
44
102
{ACAD_REACTORS
330
42
102
}
330
42
100
AcDbScale
 70
     0
300
1/128" = 1'-0"
140
0.0078125
141
12.0
290
     0
  0
SCALE
  5
45
102
{ACAD_REACTORS
330
42
102
}
330
42
100
AcDbScale
 70
     0
300
1/64" = 1'-0"
140
0.015625
141
12.0
290
     0
  0
SCALE
  5
46
102
{ACAD_REACTORS
330
42
102
}
330
42
100
AcDbScale
 70
     0
300
1/32" = 1'-0"
140
0.03125
141
12.0
290
     0
  0
SCALE
  5
47
102
{ACAD_REACTORS
330
42
102
}
330
42
100
AcDbScale
 70
     0
300
1/16" = 1'-0"
140
0.0625
141
12.0
290
     0
  0
SCALE
  5
48
102
{ACAD_REACTORS
330
42
102
}
330
42
100
AcDbScale
 70
     0
300
3/32" = 1'-0"
140
0.09375
141
12.0
290
     0
  0
SCALE
  5
49
102
{ACAD_REACTORS
330
42
102
}
330
42
100
AcDbScale
 70
     0
300
1/8" = 1'-0"
140
0.125
141
12.0
290
     0
  0
SCALE
  5
4A
102
{ACAD_REACTORS
330
42
102
}
330
42
100
AcDbScale
 70
     0
300
3/16" = 1'-0"
140
0.1875
141
12.0
290
     0
  0
SCALE
  5
4B
102
{ACAD_REACTORS
330
42
102
}
330
42
100
AcDbScale
 70
     0
300
1/4" = 1'-0"
140
0.25
141
12.0
290
     0
  0
SCALE
  5
4C
102
{ACAD_REACTORS
330
42
102
}
330
42
100
AcDbScale
 70
     0
300
3/8" = 1'-0"
140
0.375
141
12.0
290
     0
  0
SCALE
  5
4D
102
{ACAD_REACTORS
330
42
102
}
330
42
100
AcDbScale
 70
     0
300
1/2" = 1'-0"
140
0.5
141
12.0
290
     0
  0
SCALE
  5
4E
102
{ACAD_REACTORS
330
42
102
}
330
42
100
AcDbScale
 70
     0
300
3/4" = 1'-0"
140
0.75
141
12.0
290
     0
  0
SCALE
  5
4F
102
{ACAD_REACTORS
330
42
102
}
330
42
100
AcDbScale
 70
     0
300
1" = 1'-0"
140
1.0
141
12.0
290
     0
  0
SCALE
  5
50
102
{ACAD_REACTORS
330
42
102
}
330
42
100
AcDbScale
 70
     0
300
1-1/2" = 1'-0"
140
1.5
141
12.0
290
     0
  0
SCALE
  5
51
102
{ACAD_REACTORS
330
42
102
}
330
42
100
AcDbScale
 70
     0
300
3" = 1'-0"
140
3.0
141
12.0
290
     0
  0
SCALE
  5
52
102
{ACAD_REACTORS
330
42
102
}
330
42
100
AcDbScale
 70
     0
300
6" = 1'-0"
140
6.0
141
12.0
290
     0
  0
SCALE
  5
53
102
{ACAD_REACTORS
330
42
102
}
330
42
100
AcDbScale
 70
     0
300
1'-0" = 1'-0"
140
12.0
141
12.0
290
     0
  0
TABLESTYLE
  5
65
102
{ACAD_XDICTIONARY
360
1EE
102
}
102
{ACAD_REACTORS
330
64
102
}
330
64
100
AcDbTableStyle
  3
Standard
 70
     0
 71
     0
 40
0.06
 41
0.06
280
     0
281
     0
  7
Standard
140
0.18
170
     2
 62
     0
 63
     7
283
     0
274
    -2
284
     1
 64
     0
275
    -2
285
     1
 65
     0
276
    -2
286
     1
 66
     0
277
    -2
287
     1
 67
     0
278
    -2
288
     1
 68
     0
279
    -2
289
     1
 69
     0
  7
Standard
140
0.25
170
     5
 62
     0
 63
     7
283
     0
274
    -2
284
     1
 64
     0
275
    -2
285
     1
 65
     0
276
    -2
286
     1
 66
     0
277
    -2
287
     1
 67
     0
278
    -2
288
     1
 68
     0
279
    -2
289
     1
 69
     0
  7
Standard
140
0.18
170
     5
 62
     0
 63
     7
283
     0
274
    -2
284
     1
 64
     0
275
    -2
285
     1
 65
     0
276
    -2
286
     1
 66
     0
277
    -2
287
     1
 67
     0
278
    -2
288
     1
 68
     0
279
    -2
289
     1
 69
     0
  0
VISUALSTYLE
  5
2F
102
{ACAD_XDICTIONARY
360
3B0
102
}
102
{ACAD_REACTORS
330
29
102
}
330
29
100
AcDbVisualStyle
  2

 70
     4
 71
     0
 72
     2
 73
     0
 90
        0
 40
-0.6
 41
-30.0
 62
     5
 63
     7
 74
     1
 91
        4
 64
     7
 65
   257
 75
     1
175
     1
 42
1.0
 92
        0
 66
   257
 43
1.0
 76
     1
 77
     6
 78
     2
 67
     7
 79
     5
170
     0
171
     0
290
     0
174
     0
 93
        1
 44
0.0
173
     0
291
     0
 45
0.0
1001
ACAD
1000
AcDbSavedByObjectVersion
1070
     0
  0
VISUALSTYLE
  5
2E
102
{ACAD_XDICTIONARY
360
3AE
102
}
102
{ACAD_REACTORS
330
29
102
}
330
29
100
AcDbVisualStyle
  2

 70
     7
 71
     1
 72
     0
 73
     1
 90
        0
 40
-0.6
 41
-30.0
 62
     5
 63
     7
 74
     0
 91
        4
 64
     7
 65
   257
 75
     1
175
     1
 42
1.0
 92
        8
 66
     7
 43
1.0
 76
     1
 77
     6
 78
     2
 67
     7
 79
     5
170
     0
171
     0
290
     0
174
     0
 93
        1
 44
0.0
173
     0
291
     1
 45
0.0
1001
ACAD
1000
AcDbSavedByObjectVersion
1070
     0
  0
VISUALSTYLE
  5
35
102
{ACAD_XDICTIONARY
360
3BC
102
}
102
{ACAD_REACTORS
330
29
102
}
330
29
100
AcDbVisualStyle
  2

 70
    12
 71
     2
 72
     2
 73
     0
 90
        0
 40
-0.6
 41
-30.0
 62
     5
 63
     7
 74
     1
 91
        4
 64
     7
 65
   257
 75
     1
175
     1
 42
1.0
 92
        8
 66
     7
 43
1.0
 76
     1
 77
     6
 78
     2
 67
     7
 79
     5
170
     0
171
     0
290
     0
174
     0
 93
        1
 44
50.0
173
     0
291
     1
 45
0.0
1001
ACAD
1000
AcDbSavedByObjectVersion
1070
     0
  0
VISUALSTYLE
  5
39
102
{ACAD_XDICTIONARY
360
3C4
102
}
102
{ACAD_REACTORS
330
29
102
}
330
29
100
AcDbVisualStyle
  2

 70
    16
 71
     2
 72
     2
 73
     3
 90
        0
 40
-0.6
 41
-30.0
 62
     5
 63
     8
 74
     1
 91
        4
 64
     7
 65
   257
 75
     1
175
     1
 42
1.0
 92
        8
 66
     8
 43
1.0
 76
     1
 77
     6
 78
     2
 67
     7
 79
     5
170
     0
171
     0
290
     0
174
     0
 93
        1
 44
0.0
173
     0
291
     1
 45
0.0
1001
ACAD
1000
AcDbSavedByObjectVersion
1070
     0
  0
VISUALSTYLE
  5
32
102
{ACAD_XDICTIONARY
360
3B6
102
}
102
{ACAD_REACTORS
330
29
102
}
330
29
100
AcDbVisualStyle
  2

 70
     9
 71
     3
 72
     2
 73
     0
 90
        0
 40
-0.6
 41
-30.0
 62
     5
 63
     7
 74
     2
 91
        2
 64
     7
 65
   257
 75
     1
175
     1
 42
179.0
 92
        8
 66
     7
 43
1.0
 76
     1
 77
     6
 78
     2
 67
     7
 79
     3
170
     0
171
     0
290
     0
174
     0
 93
        1
 44
0.0
173
     0
291
     0
 45
0.0
1001
ACAD
1000
AcDbSavedByObjectVersion
1070
     0
  0
VISUALSTYLE
  5
34
102
{ACAD_XDICTIONARY
360
3BA
102
}
102
{ACAD_REACTORS
330
29
102
}
330
29
100
AcDbVisualStyle
  2

 70
    11
 71
     2
 72
     2
 73
     0
 90
        0
 40
-0.6
 41
-30.0
 62
     5
 63
     7
 74
     1
 91
        4
 64
     7
 65
   257
 75
     1
175
     1
 42
1.0
 92
        8
 66
     7
 43
1.0
 76
     1
 77
     6
 78
     2
 67
     7
 79
     5
170
     0
171
     0
290
     0
174
     0
 93
        1
 44
-50.0
173
     0
291
     1
 45
0.0
1001
ACAD
1000
AcDbSavedByObjectVersion
1070
     0
  0
VISUALSTYLE
  5
41
102
{ACAD_XDICTIONARY
360
3D4
102
}
102
{ACAD_REACTORS
330
29
102
}
330
29
100
AcDbVisualStyle
  2

 70
    22
 71
     2
 72
     2
 73
     0
 90
        0
 40
-0.6
 41
-30.0
 62
     5
 63
     7
 74
     1
 91
        4
 64
     7
 65
   257
 75
     1
175
     1
 42
1.0
 92
        8
 66
     7
 43
1.0
 76
     1
 77
     6
 78
     2
 67
     7
 79
     5
170
     0
171
     0
290
     0
174
     0
 93
        1
 44
0.0
173
     0
291
     1
 45
0.0
1001
ACAD
1000
AcDbSavedByObjectVersion
1070
     0
  0
VISUALSTYLE
  5
38
102
{ACAD_XDICTIONARY
360
3C2
102
}
102
{ACAD_REACTORS
330
29
102
}
330
29
100
AcDbVisualStyle
  2

 70
    15
 71
     2
 72
     2
 73
     0
 90
        0
 40
-0.6
 41
-30.0
 62
     5
 63
     7
 74
     1
 91
        4
 64
     7
 65
   257
 75
     1
175
     1
 42
1.0
 92
        8
 66
     7
 43
1.0
 76
     1
 77
     6
 78
     2
 67
     7
 79
     5
170
     0
171
     0
290
     0
174
     0
 93
        1
 44
0.0
173
     0
291
     1
 45
0.0
1001
ACAD
1000
AcDbSavedByObjectVersion
1070
     0
  0
VISUALSTYLE
  5
2A
102
{ACAD_XDICTIONARY
360
3A6
102
}
102
{ACAD_REACTORS
330
29
102
}
330
29
100
AcDbVisualStyle
  2

 70
     0
 71
     2
 72
     1
 73
     1
 90
        2
 40
-0.6
 41
30.0
 62
     5
 63
     7
 74
     0
 91
        0
 64
     7
 65
   257
 75
     1
175
     1
 42
1.0
 92
        8
 66
     7
 43
1.0
 76
     1
 77
     6
 78
     2
 67
     7
 79
     5
170
     0
171
     0
290
     0
174
     0
 93
       13
 44
0.0
173
     0
291
     1
 45
0.0
1001
ACAD
1000
AcDbSavedByObjectVersion
1070
     0
  0
VISUALSTYLE
  5
2B
102
{ACAD_XDICTIONARY
360
3A8
102
}
102
{ACAD_REACTORS
330
29
102
}
330
29
100
AcDbVisualStyle
  2

 70
     1
 71
     2
 72
     1
 73
     1
 90
        2
 40
-0.6
 41
30.0
 62
     5
 63
     7
 74
     1
 91
        0
 64
     7
 65
   257
 75
     1
175
     1
 42
1.0
 92
        0
 66
   257
 43
1.0
 76
     1
 77
     6
 78
     2
 67
     7
 79
     5
170
     0
171
     0
290
     0
174
     0
 93
       13
 44
0.0
173
     0
291
     1
 45
0.0
1001
ACAD
1000
AcDbSavedByObjectVersion
1070
     0
  0
VISUALSTYLE
  5
2C
102
{ACAD_XDICTIONARY
360
3AA
102
}
102
{ACAD_REACTORS
330
29
102
}
330
29
100
AcDbVisualStyle
  2

 70
     2
 71
     2
 72
     2
 73
     1
 90
        2
 40
-0.6
 41
30.0
 62
     5
 63
     7
 74
     0
 91
        0
 64
     7
 65
   257
 75
     1
175
     1
 42
1.0
 92
        0
 66
     7
 43
1.0
 76
     1
 77
     6
 78
     2
 67
     7
 79
     5
170
     0
171
     0
290
     0
174
     0
 93
       13
 44
0.0
173
     0
291
     1
 45
0.0
1001
ACAD
1000
AcDbSavedByObjectVersion
1070
     0
  0
VISUALSTYLE
  5
2D
102
{ACAD_XDICTIONARY
360
3AC
102
}
102
{ACAD_REACTORS
330
29
102
}
330
29
100
AcDbVisualStyle
  2

 70
     3
 71
     2
 72
     2
 73
     1
 90
        2
 40
-0.6
 41
30.0
 62
     5
 63
     7
 74
     1
 91
        0
 64
     7
 65
   257
 75
     1
175
     1
 42
1.0
 92
        0
 66
   257
 43
1.0
 76
     1
 77
     6
 78
     2
 67
     7
 79
     5
170
     0
171
     0
290
     0
174
     0
 93
       13
 44
0.0
173
     0
291
     1
 45
0.0
1001
ACAD
1000
AcDbSavedByObjectVersion
1070
     0
  0
VISUALSTYLE
  5
31
102
{ACAD_XDICTIONARY
360
3B4
102
}
102
{ACAD_REACTORS
330
29
102
}
330
29
100
AcDbVisualStyle
  2

 70
     6
 71
     1
 72
     2
 73
     2
 90
        0
 40
-0.6
 41
-30.0
 62
     5
 63
     7
 74
     2
 91
        2
 64
     7
 65
   257
 75
     2
175
     1
 42
40.0
 92
        0
 66
   257
 43
1.0
 76
     1
 77
     6
 78
     2
 67
     7
 79
     3
170
     0
171
     0
290
     0
174
     0
 93
        1
 44
0.0
173
     0
291
     0
 45
0.0
1001
ACAD
1000
AcDbSavedByObjectVersion
1070
     0
  0
VISUALSTYLE
  5
3F
102
{ACAD_XDICTIONARY
360
3D0
102
}
102
{ACAD_REACTORS
330
29
102
}
330
29
100
AcDbVisualStyle
  2

 70
    20
 71
     2
 72
     2
 73
     0
 90
        0
 40
-0.6
 41
-30.0
 62
     5
 63
     7
 74
     1
 91
        4
 64
     7
 65
   257
 75
     1
175
     1
 42
1.0
 92
       10
 66
     7
 43
1.0
 76
     1
 77
     6
 78
     2
 67
     7
 79
     5
170
     0
171
     0
290
     0
174
     0
 93
        1
 44
0.0
173
     0
291
     1
 45
0.0
1001
ACAD
1000
AcDbSavedByObjectVersion
1070
     0
  0
VISUALSTYLE
  5
37
102
{ACAD_XDICTIONARY
360
3C0
102
}
102
{ACAD_REACTORS
330
29
102
}
330
29
100
AcDbVisualStyle
  2

 70
    14
 71
     2
 72
     2
 73
     0
 90
        0
 40
-0.6
 41
-30.0
 62
     5
 63
     7
 74
     1
 91
        4
 64
     7
 65
   257
 75
     7
175
     7
 42
1.0
 92
        8
 66
     7
 43
1.0
 76
     1
 77
     6
 78
     2
 67
     7
 79
     5
170
     0
171
     0
290
     0
174
     0
 93
        1
 44
0.0
173
     0
291
     1
 45
0.0
1001
ACAD
1000
AcDbSavedByObjectVersion
1070
     0
  0
VISUALSTYLE
  5
40
102
{ACAD_XDICTIONARY
360
3D2
102
}
102
{ACAD_REACTORS
330
29
102
}
330
29
100
AcDbVisualStyle
  2

 70
    21
 71
     2
 72
     2
 73
     0
 90
        0
 40
-0.6
 41
-30.0
 62
     5
 63
     7
 74
     1
 91
        4
 64
     7
 65
   257
 75
     1
175
     1
 42
1.0
 92
        9
 66
     7
 43
1.0
 76
     1
 77
     6
 78
     2
 67
     7
 79
     5
170
     0
171
     0
290
     0
174
     0
 93
        1
 44
0.0
173
     0
291
     1
 45
0.0
1001
ACAD
1000
AcDbSavedByObjectVersion
1070
     0
  0
VISUALSTYLE
  5
33
102
{ACAD_XDICTIONARY
360
3B8
102
}
102
{ACAD_REACTORS
330
29
102
}
330
29
100
AcDbVisualStyle
  2

 70
     8
 71
     2
 72
     2
 73
     0
 90
        2
 40
-0.6
 41
30.0
 62
     5
 63
     7
 74
     0
 91
        0
 64
     7
 65
   257
 75
     1
175
     1
 42
1.0
 92
        8
 66
   257
 43
1.0
 76
     1
 77
     6
 78
     2
 67
     7
 79
     3
170
     0
171
     0
290
     0
174
     0
 93
       13
 44
0.0
173
     0
291
     0
 45
0.0
1001
ACAD
1000
AcDbSavedByObjectVersion
1070
     0
  0
VISUALSTYLE
  5
3E
102
{ACAD_XDICTIONARY
360
3CE
102
}
102
{ACAD_REACTORS
330
29
102
}
330
29
100
AcDbVisualStyle
  2

 70
    27
 71
     2
 72
     2
 73
     1
 90
        2
 40
-0.6
 41
30.0
 62
     5
 63
     7
 74
     0
 91
        4
 64
     7
 65
   257
 75
     1
175
     1
 42
1.0
 92
        8
 66
   257
 43
1.0
 76
     1
 77
     6
 78
     2
 67
     8
 79
     3
170
     0
171
     0
290
     0
174
     0
 93
        5
 44
0.0
173
     0
291
     0
 45
0.0
1001
ACAD
1000
AcDbSavedByObjectVersion
1070
     0
  0
VISUALSTYLE
  5
3D
102
{ACAD_XDICTIONARY
360
3CC
102
}
102
{ACAD_REACTORS
330
29
102
}
330
29
100
AcDbVisualStyle
  2

 70
    26
 71
     2
 72
     2
 73
     1
 90
        2
 40
-0.6
 41
30.0
 62
     5
 63
     7
 74
     1
 91
       10
 64
     7
 65
   257
 75
     2
175
     1
 42
1.0
 92
        8
 66
   257
 43
1.0
 76
     1
 77
     6
 78
     2
 67
     7
 79
     3
170
     0
171
     0
290
     0
174
     0
 93
        5
 44
0.0
173
     0
291
     0
 45
0.0
1001
ACAD
1000
AcDbSavedByObjectVersion
1070
     0
  0
VISUALSTYLE
  5
3A
102
{ACAD_XDICTIONARY
360
3C6
102
}
102
{ACAD_REACTORS
330
29
102
}
330
29
100
AcDbVisualStyle
  2

 70
    23
 71
     2
 72
     2
 73
     3
 90
        0
 40
-0.6
 41
-30.0
 62
     5
 63
     7
 74
     2
 91
        2
 64
     7
 65
     7
 75
     1
175
     1
 42
40.0
 92
        8
 66
     7
 43
1.0
 76
     1
 77
     6
 78
     2
 67
     7
 79
     3
170
     0
171
     0
290
     0
174
     0
 93
        1
 44
0.0
173
     0
291
     0
 45
0.0
1001
ACAD
1000
AcDbSavedByObjectVersion
1070
     0
  0
VISUALSTYLE
  5
3B
102
{ACAD_XDICTIONARY
360
3C8
102
}
102
{ACAD_REACTORS
330
29
102
}
330
29
100
AcDbVisualStyle
  2

 70
    24
 71
     1
 72
     2
 73
     2
 90
        0
 40
-0.6
 41
-30.0
 62
     5
 63
     7
 74
     2
 91
        2
 64
     7
 65
     7
 75
     1
175
     1
 42
40.0
 92
       11
 66
     7
 43
1.0
 76
     1
 77
     6
 78
     2
 67
     7
 79
     6
170
     0
171
     0
290
     0
174
     0
 93
        1
 44
0.0
173
     0
291
     0
 45
0.0
1001
ACAD
1000
AcDbSavedByObjectVersion
1070
     0
  0
VISUALSTYLE
  5
36
102
{ACAD_XDICTIONARY
360
3BE
102
}
102
{ACAD_REACTORS
330
29
102
}
330
29
100
AcDbVisualStyle
  2

 70
    13
 71
     2
 72
     2
 73
     0
 90
        0
 40
-0.6
 41
-30.0
 62
     5
 63
     7
 74
     1
 91
        4
 64
     7
 65
   257
 75
     1
175
     1
 42
1.0
 92
       12
 66
     7
 43
1.0
 76
     1
 77
     6
 78
     2
 67
     7
 79
     5
170
     0
171
     0
290
     0
174
     0
 93
        1
 44
0.0
173
     0
291
     1
 45
0.0
1001
ACAD
1000
AcDbSavedByObjectVersion
1070
     0
  0
VISUALSTYLE
  5
30
102
{ACAD_XDICTIONARY
360
3B2
102
}
102
{ACAD_REACTORS
330
29
102
}
330
29
100
AcDbVisualStyle
  2

 70
     5
 71
     0
 72
     2
 73
     0
 90
        0
 40
-0.6
 41
-30.0
 62
     5
 63
     7
 74
     1
 91
        4
 64
     7
 65
   257
 75
     1
175
     1
 42
1.0
 92
        0
 66
   257
 43
1.0
 76
     1
 77
     6
 78
     2
 67
     7
 79
     3
170
     0
171
     0
290
     0
174
     0
 93
        1
 44
0.0
173
     0
291
     0
 45
0.0
1001
ACAD
1000
AcDbSavedByObjectVersion
1070
     0
  0
VISUALSTYLE
  5
3C
102
{ACAD_XDICTIONARY
360
3CA
102
}
102
{ACAD_REACTORS
330
29
102
}
330
29
100
AcDbVisualStyle
  2

 70
    25
 71
     2
 72
     2
 73
     1
 90
        1
 40
0.5
 41
-30.0
 62
     5
 63
     7
 74
     1
 91
        0
 64
     7
 65
   257
 75
     1
175
     1
 42
1.0
 92
        8
 66
     7
 43
1.0
 76
     1
 77
     6
 78
     2
 67
     7
 79
     3
170
     0
171
     0
290
     0
174
     0
 93
       13
 44
0.0
173
     0
291
     0
 45
0.0
1001
ACAD
1000
AcDbSavedByObjectVersion
1070
     0
  0
DICTIONARYVAR
  5
234
102
{ACAD_REACTORS
330
230
102
}
330
230
100
DictionaryVariables
280
     0
  1
1:1
  0
DICTIONARYVAR
  5
232
102
{ACAD_REACTORS
330
230
102
}
330
230
100
DictionaryVariables
280
     0
  1
STANDARD
  0
DICTIONARYVAR
  5
231
102
{ACAD_REACTORS
330
230
102
}
330
230
100
DictionaryVariables
280
     0
  1
STANDARD
  0
DICTIONARYVAR
  5
23B
102
{ACAD_REACTORS
330
230
102
}
330
230
100
DictionaryVariables
280
     0
  1
2
  0
DICTIONARYVAR
  5
23A
102
{ACAD_REACTORS
330
230
102
}
330
230
100
DictionaryVariables
280
     0
  1
1
  0
DICTIONARYVAR
  5
239
102
{ACAD_REACTORS
330
230
102
}
330
230
100
DictionaryVariables
280
     0
  1
0
  0
DICTIONARYVAR
  5
236
102
{ACAD_REACTORS
330
230
102
}
330
230
100
DictionaryVariables
280
     0
  1
0
  0
DICTIONARYVAR
  5
237
102
{ACAD_REACTORS
330
230
102
}
330
230
100
DictionaryVariables
280
     0
  1
0
  0
DICTIONARYVAR
  5
235
102
{ACAD_REACTORS
330
230
102
}
330
230
100
DictionaryVariables
280
     0
  1
2
  0
DICTIONARYVAR
  5
233
102
{ACAD_REACTORS
330
230
102
}
330
230
100
DictionaryVariables
280
     0
  1
1
  0
DICTIONARYVAR
  5
238
102
{ACAD_REACTORS
330
230
102
}
330
230
100
DictionaryVariables
280
     0
  1
127
  0
DICTIONARYVAR
  5
3A0
102
{ACAD_REACTORS
330
230
102
}
330
230
100
DictionaryVariables
280
     0
  1
2
  0
DICTIONARY
  5
3D9
330
6F
100
AcDbDictionary
280
     1
281
     1
  3
ACAD_XREC_ROUNDTRIP
360
3DA
  0
DICTIONARY
  5
3D7
330
6B
100
AcDbDictionary
280
     1
281
     1
  3
ACAD_XREC_ROUNDTRIP
360
3D8
  0
DICTIONARY
  5
3DB
330
73
100
AcDbDictionary
280
     1
281
     1
  3
ACAD_XREC_ROUNDTRIP
360
3DC
  0
DICTIONARY
  5
1A
330
19
100
AcDbDictionary
280
     1
281
     1
  3
ACAD_XREC_ROUNDTRIP
360
28B
  3
BUMPTILE
360
1C
  3
DIFFUSETILE
360
1B
  3
OPACITYTILE
360
1F
  3
REFLECTIONTILE
360
1E
  3
REFRACTIONTILE
360
20
  3
SPECULARTILE
360
1D
  0
DICTIONARY
  5
12
330
11
100
AcDbDictionary
280
     1
281
     1
  3
ACAD_XREC_ROUNDTRIP
360
28A
  3
BUMPTILE
360
14
  3
DIFFUSETILE
360
13
  3
OPACITYTILE
360
17
  3
REFLECTIONTILE
360
16
  3
REFRACTIONTILE
360
18
  3
SPECULARTILE
360
15
  0
DICTIONARY
  5
22
330
21
100
AcDbDictionary
280
     1
281
     1
  3
ACAD_XREC_ROUNDTRIP
360
28C
  3
BUMPTILE
360
24
  3
DIFFUSETILE
360
23
  3
OPACITYTILE
360
27
  3
REFLECTIONTILE
360
26
  3
REFRACTIONTILE
360
28
  3
SPECULARTILE
360
25
  0
DICTIONARY
  5
1EE
330
65
100
AcDbDictionary
280
     1
281
     1
  3
ACAD_ROUNDTRIP_2008_TABLESTYLE_CELLSTYLEMAP
360
3A1
  3
ACAD_XREC_ROUNDTRIP
360
3D6
  0
DICTIONARY
  5
3B0
330
2F
100
AcDbDictionary
280
     1
281
     1
  3
ACAD_XREC_ROUNDTRIP
360
3B1
  0
DICTIONARY
  5
3AE
330
2E
100
AcDbDictionary
280
     1
281
     1
  3
ACAD_XREC_ROUNDTRIP
360
3AF
  0
DICTIONARY
  5
3BC
330
35
100
AcDbDictionary
280
     1
281
     1
  3
ACAD_XREC_ROUNDTRIP
360
3BD
  0
DICTIONARY
  5
3C4
330
39
100
AcDbDictionary
280
     1
281
     1
  3
ACAD_XREC_ROUNDTRIP
360
3C5
  0
DICTIONARY
  5
3B6
330
32
100
AcDbDictionary
280
     1
281
     1
  3
ACAD_XREC_ROUNDTRIP
360
3B7
  0
DICTIONARY
  5
3BA
330
34
100
AcDbDictionary
280
     1
281
     1
  3
ACAD_XREC_ROUNDTRIP
360
3BB
  0
DICTIONARY
  5
3D4
330
41
100
AcDbDictionary
280
     1
281
     1
  3
ACAD_XREC_ROUNDTRIP
360
3D5
  0
DICTIONARY
  5
3C2
330
38
100
AcDbDictionary
280
     1
281
     1
  3
ACAD_XREC_ROUNDTRIP
360
3C3
  0
DICTIONARY
  5
3A6
330
2A
100
AcDbDictionary
280
     1
281
     1
  3
ACAD_XREC_ROUNDTRIP
360
3A7
  0
DICTIONARY
  5
3A8
330
2B
100
AcDbDictionary
280
     1
281
     1
  3
ACAD_XREC_ROUNDTRIP
360
3A9
  0
DICTIONARY
  5
3AA
330
2C
100
AcDbDictionary
280
     1
281
     1
  3
ACAD_XREC_ROUNDTRIP
360
3AB
  0
DICTIONARY
  5
3AC
330
2D
100
AcDbDictionary
280
     1
281
     1
  3
ACAD_XREC_ROUNDTRIP
360
3AD
  0
DICTIONARY
  5
3B4
330
31
100
AcDbDictionary
280
     1
281
     1
  3
ACAD_XREC_ROUNDTRIP
360
3B5
  0
DICTIONARY
  5
3D0
330
3F
100
AcDbDictionary
280
     1
281
     1
  3
ACAD_XREC_ROUNDTRIP
360
3D1
  0
DICTIONARY
  5
3C0
330
37
100
AcDbDictionary
280
     1
281
     1
  3
ACAD_XREC_ROUNDTRIP
360
3C1
  0
DICTIONARY
  5
3D2
330
40
100
AcDbDictionary
280
     1
281
     1
  3
ACAD_XREC_ROUNDTRIP
360
3D3
  0
DICTIONARY
  5
3B8
330
33
100
AcDbDictionary
280
     1
281
     1
  3
ACAD_XREC_ROUNDTRIP
360
3B9
  0
DICTIONARY
  5
3CE
330
3E
100
AcDbDictionary
280
     1
281
     1
  3
ACAD_XREC_ROUNDTRIP
360
3CF
  0
DICTIONARY
  5
3CC
330
3D
100
AcDbDictionary
280
     1
281
     1
  3
ACAD_XREC_ROUNDTRIP
360
3CD
  0
DICTIONARY
  5
3C6
330
3A
100
AcDbDictionary
280
     1
281
     1
  3
ACAD_XREC_ROUNDTRIP
360
3C7
  0
DICTIONARY
  5
3C8
330
3B
100
AcDbDictionary
280
     1
281
     1
  3
ACAD_XREC_ROUNDTRIP
360
3C9
  0
DICTIONARY
  5
3BE
330
36
100
AcDbDictionary
280
     1
281
     1
  3
ACAD_XREC_ROUNDTRIP
360
3BF
  0
DICTIONARY
  5
3B2
330
30
100
AcDbDictionary
280
     1
281
     1
  3
ACAD_XREC_ROUNDTRIP
360
3B3
  0
DICTIONARY
  5
3CA
330
3C
100
AcDbDictionary
280
     1
281
     1
  3
ACAD_XREC_ROUNDTRIP
360
3CB
  0
XRECORD
  5
3DA
102
{ACAD_REACTORS
330
3D9
102
}
330
3D9
100
AcDbXrecord
280
     1
102
SHADEPLOT
 70
     0
102
SHADEPLOTRESLEVEL
 70
     2
102
SHADEPLOTCUSTOMDPI
 70
   300
  0
XRECORD
  5
3D8
102
{ACAD_REACTORS
330
3D7
102
}
330
3D7
100
AcDbXrecord
280
     1
102
SHADEPLOT
 70
     0
102
SHADEPLOTRESLEVEL
 70
     2
102
SHADEPLOTCUSTOMDPI
 70
   300
  0
XRECORD
  5
3DC
102
{ACAD_REACTORS
330
3DB
102
}
330
3DB
100
AcDbXrecord
280
     1
102
SHADEPLOT
 70
     0
102
SHADEPLOTRESLEVEL
 70
     2
102
SHADEPLOTCUSTOMDPI
 70
   300
  0
XRECORD
  5
28B
102
{ACAD_REACTORS
330
1A
102
}
330
1A
100
AcDbXrecord
280
     1
102
MATERIAL
148
0.0
149
0.0
149
0.0
 93
        0
 94
      127
282
     0
 72
     0
 77
     0
171
     0
175
     0
179
     0
273
     0
  0
XRECORD
  5
1C
102
{ACAD_REACTORS
330
1A
102
}
330
1A
100
AcDbXrecord
280
     1
270
     1
271
     1
  0
XRECORD
  5
1B
102
{ACAD_REACTORS
330
1A
102
}
330
1A
100
AcDbXrecord
280
     1
270
     1
271
     1
  0
XRECORD
  5
1F
102
{ACAD_REACTORS
330
1A
102
}
330
1A
100
AcDbXrecord
280
     1
270
     1
271
     1
  0
XRECORD
  5
1E
102
{ACAD_REACTORS
330
1A
102
}
330
1A
100
AcDbXrecord
280
     1
270
     1
271
     1
  0
XRECORD
  5
20
102
{ACAD_REACTORS
330
1A
102
}
330
1A
100
AcDbXrecord
280
     1
270
     1
271
     1
  0
XRECORD
  5
1D
102
{ACAD_REACTORS
330
1A
102
}
330
1A
100
AcDbXrecord
280
     1
270
     1
271
     1
  0
XRECORD
  5
28A
102
{ACAD_REACTORS
330
12
102
}
330
12
100
AcDbXrecord
280
     1
102
MATERIAL
148
0.0
149
0.0
149
0.0
 93
        0
 94
      127
282
     0
 72
     0
 77
     0
171
     0
175
     0
179
     0
273
     0
  0
XRECORD
  5
14
102
{ACAD_REACTORS
330
12
102
}
330
12
100
AcDbXrecord
280
     1
270
     1
271
     1
  0
XRECORD
  5
13
102
{ACAD_REACTORS
330
12
102
}
330
12
100
AcDbXrecord
280
     1
270
     1
271
     1
  0
XRECORD
  5
17
102
{ACAD_REACTORS
330
12
102
}
330
12
100
AcDbXrecord
280
     1
270
     1
271
     1
  0
XRECORD
  5
16
102
{ACAD_REACTORS
330
12
102
}
330
12
100
AcDbXrecord
280
     1
270
     1
271
     1
  0
XRECORD
  5
18
102
{ACAD_REACTORS
330
12
102
}
330
12
100
AcDbXrecord
280
     1
270
     1
271
     1
  0
XRECORD
  5
15
102
{ACAD_REACTORS
330
12
102
}
330
12
100
AcDbXrecord
280
     1
270
     1
271
     1
  0
XRECORD
  5
28C
102
{ACAD_REACTORS
330
22
102
}
330
22
100
AcDbXrecord
280
     1
102
MATERIAL
148
0.0
149
0.0
149
0.0
 93
        0
 94
      127
282
     0
 72
     0
 77
     0
171
     0
175
     0
179
     0
273
     0
  0
XRECORD
  5
24
102
{ACAD_REACTORS
330
22
102
}
330
22
100
AcDbXrecord
280
     1
270
     1
271
     1
  0
XRECORD
  5
23
102
{ACAD_REACTORS
330
22
102
}
330
22
100
AcDbXrecord
280
     1
270
     1
271
     1
  0
XRECORD
  5
27
102
{ACAD_REACTORS
330
22
102
}
330
22
100
AcDbXrecord
280
     1
270
     1
271
     1
  0
XRECORD
  5
26
102
{ACAD_REACTORS
330
22
102
}
330
22
100
AcDbXrecord
280
     1
270
     1
271
     1
  0
XRECORD
  5
28
102
{ACAD_REACTORS
330
22
102
}
330
22
100
AcDbXrecord
280
     1
270
     1
271
     1
  0
XRECORD
  5
25
102
{ACAD_REACTORS
330
22
102
}
330
22
100
AcDbXrecord
280
     1
270
     1
271
     1
  0
CELLSTYLEMAP
  5
3A1
102
{ACAD_REACTORS
330
1EE
102
}
330
1EE
100
AcDbCellStyleMap
 90
        3
300
CELLSTYLE
  1
TABLEFORMAT_BEGIN
 90
        5
170
     1
 91
        0
 92
    32768
 62
   257
 93
        1
300
CONTENTFORMAT
  1
CONTENTFORMAT_BEGIN
 90
        0
 91
        0
 92
      512
 93
        0
300

 40
0.0
140
1.0
 94
        5
 62
     0
340
55
144
0.25
309
CONTENTFORMAT_END
171
     1
301
MARGIN
  1
CELLMARGIN_BEGIN
 40
0.06
 40
0.06
 40
0.06
 40
0.06
 40
0.18
 40
0.18
309
CELLMARGIN_END
 94
        6
 95
        1
302
GRIDFORMAT
  1
GRIDFORMAT_BEGIN
 90
        0
 91
        1
 62
     0
 92
       -2
340
0
 93
        0
 40
0.045
309
GRIDFORMAT_END
 95
        2
302
GRIDFORMAT
  1
GRIDFORMAT_BEGIN
 90
        0
 91
        1
 62
     0
 92
       -2
340
0
 93
        0
 40
0.045
309
GRIDFORMAT_END
 95
        4
302
GRIDFORMAT
  1
GRIDFORMAT_BEGIN
 90
        0
 91
        1
 62
     0
 92
       -2
340
0
 93
        0
 40
0.045
309
GRIDFORMAT_END
 95
        8
302
GRIDFORMAT
  1
GRIDFORMAT_BEGIN
 90
        0
 91
        1
 62
     0
 92
       -2
340
0
 93
        0
 40
0.045
309
GRIDFORMAT_END
 95
       16
302
GRIDFORMAT
  1
GRIDFORMAT_BEGIN
 90
        0
 91
        1
 62
     0
 92
       -2
340
0
 93
        0
 40
0.045
309
GRIDFORMAT_END
 95
       32
302
GRIDFORMAT
  1
GRIDFORMAT_BEGIN
 90
        0
 91
        1
 62
     0
 92
       -2
340
0
 93
        0
 40
0.045
309
GRIDFORMAT_END
309
TABLEFORMAT_END
  1
CELLSTYLE_BEGIN
 90
        1
 91
        1
300
_TITLE
309
CELLSTYLE_END
300
CELLSTYLE
  1
TABLEFORMAT_BEGIN
 90
        5
170
     1
 91
        0
 92
        0
 62
   257
 93
        1
300
CONTENTFORMAT
  1
CONTENTFORMAT_BEGIN
 90
        0
 91
        0
 92
      512
 93
        0
300

 40
0.0
140
1.0
 94
        5
 62
     0
340
55
144
0.18
309
CONTENTFORMAT_END
171
     1
301
MARGIN
  1
CELLMARGIN_BEGIN
 40
0.06
 40
0.06
 40
0.06
 40
0.06
 40
0.18
 40
0.18
309
CELLMARGIN_END
 94
        6
 95
        1
302
GRIDFORMAT
  1
GRIDFORMAT_BEGIN
 90
        0
 91
        1
 62
     0
 92
       -2
340
0
 93
        0
 40
0.045
309
GRIDFORMAT_END
 95
        2
302
GRIDFORMAT
  1
GRIDFORMAT_BEGIN
 90
        0
 91
        1
 62
     0
 92
       -2
340
0
 93
        0
 40
0.045
309
GRIDFORMAT_END
 95
        4
302
GRIDFORMAT
  1
GRIDFORMAT_BEGIN
 90
        0
 91
        1
 62
     0
 92
       -2
340
0
 93
        0
 40
0.045
309
GRIDFORMAT_END
 95
        8
302
GRIDFORMAT
  1
GRIDFORMAT_BEGIN
 90
        0
 91
        1
 62
     0
 92
       -2
340
0
 93
        0
 40
0.045
309
GRIDFORMAT_END
 95
       16
302
GRIDFORMAT
  1
GRIDFORMAT_BEGIN
 90
        0
 91
        1
 62
     0
 92
       -2
340
0
 93
        0
 40
0.045
309
GRIDFORMAT_END
 95
       32
302
GRIDFORMAT
  1
GRIDFORMAT_BEGIN
 90
        0
 91
        1
 62
     0
 92
       -2
340
0
 93
        0
 40
0.045
309
GRIDFORMAT_END
309
TABLEFORMAT_END
  1
CELLSTYLE_BEGIN
 90
        2
 91
        1
300
_HEADER
309
CELLSTYLE_END
300
CELLSTYLE
  1
TABLEFORMAT_BEGIN
 90
        5
170
     1
 91
        0
 92
        0
 62
   257
 93
        1
300
CONTENTFORMAT
  1
CONTENTFORMAT_BEGIN
 90
        0
 91
        0
 92
      512
 93
        0
300

 40
0.0
140
1.0
 94
        2
 62
     0
340
55
144
0.18
309
CONTENTFORMAT_END
171
     1
301
MARGIN
  1
CELLMARGIN_BEGIN
 40
0.06
 40
0.06
 40
0.06
 40
0.06
 40
0.18
 40
0.18
309
CELLMARGIN_END
 94
        6
 95
        1
302
GRIDFORMAT
  1
GRIDFORMAT_BEGIN
 90
        0
 91
        1
 62
     0
 92
       -2
340
0
 93
        0
 40
0.045
309
GRIDFORMAT_END
 95
        2
302
GRIDFORMAT
  1
GRIDFORMAT_BEGIN
 90
        0
 91
        1
 62
     0
 92
       -2
340
0
 93
        0
 40
0.045
309
GRIDFORMAT_END
 95
        4
302
GRIDFORMAT
  1
GRIDFORMAT_BEGIN
 90
        0
 91
        1
 62
     0
 92
       -2
340
0
 93
        0
 40
0.045
309
GRIDFORMAT_END
 95
        8
302
GRIDFORMAT
  1
GRIDFORMAT_BEGIN
 90
        0
 91
        1
 62
     0
 92
       -2
340
0
 93
        0
 40
0.045
309
GRIDFORMAT_END
 95
       16
302
GRIDFORMAT
  1
GRIDFORMAT_BEGIN
 90
        0
 91
        1
 62
     0
 92
       -2
340
0
 93
        0
 40
0.045
309
GRIDFORMAT_END
 95
       32
302
GRIDFORMAT
  1
GRIDFORMAT_BEGIN
 90
        0
 91
        1
 62
     0
 92
       -2
340
0
 93
        0
 40
0.045
309
GRIDFORMAT_END
309
TABLEFORMAT_END
  1
CELLSTYLE_BEGIN
 90
        3
 91
        2
300
_DATA
309
CELLSTYLE_END
  0
XRECORD
  5
3D6
102
{ACAD_REACTORS
330
1EE
102
}
330
1EE
100
AcDbXrecord
280
     1
102
ACAD_ROUNDTRIP_PRE2007_TABLESTYLE
 90
      512
 91
        0
  1

 92
      512
 93
        0
  2

 94
      512
 95
        0
  3

  0
XRECORD
  5
3B1
102
{ACAD_REACTORS
330
3B0
102
}
330
3B0
100
AcDbXrecord
280
     1
102
RTVSPropertyOp0
 70
     1
102
RTVSPropertyOp1
 70
     1
102
RTVSPropertyOp2
 70
     1
102
RTVSPropertyOp3
 70
     1
102
RTVSPropertyOp4
 70
     1
102
RTVSPropertyOp5
 70
     1
102
RTVSPropertyOp6
 70
     1
102
RTVSPropertyOp7
 70
     1
102
RTVSPropertyOp8
 70
     1
102
RTVSPropertyOp9
 70
     1
102
RTVSPropertyOp10
 70
     1
102
RTVSPropertyOp11
 70
     1
102
RTVSPropertyOp12
 70
     1
102
RTVSPropertyOp13
 70
     1
102
RTVSPropertyOp14
 70
     1
102
RTVSPropertyOp15
 70
     1
102
RTVSPropertyOp16
 70
     1
102
RTVSPropertyOp17
 70
     1
102
RTVSPropertyOp18
 70
     1
102
RTVSPropertyOp19
 70
     1
102
RTVSPropertyOp20
 70
     1
102
RTVSPropertyOp21
 70
     1
102
RTVSPropertyOp22
 70
     1
102
RTVSPropertyOp23
 70
     1
102
RTVSPropertyOp24
 70
     1
102
RTVSPropertyOp25
 70
     1
102
RTVSPropertyOp26
 70
     1
102
RTVSPropertyOp27
 70
     1
102
RTVSPropertyOp28
 70
     1
102
RTVSPropertyOp29
 70
     1
102
RTVSPropertyOp30
 70
     1
102
RTVSPropertyOp31
 70
     1
102
RTVSPropertyOp32
 70
     1
  0
XRECORD
  5
3AF
102
{ACAD_REACTORS
330
3AE
102
}
330
3AE
100
AcDbXrecord
280
     1
102
RTVSPropertyOp0
 70
     1
102
RTVSPropertyOp1
 70
     1
102
RTVSPropertyOp2
 70
     1
102
RTVSPropertyOp3
 70
     1
102
RTVSPropertyOp4
 70
     1
102
RTVSPropertyOp5
 70
     1
102
RTVSPropertyOp6
 70
     1
102
RTVSPropertyOp7
 70
     1
102
RTVSPropertyOp8
 70
     1
102
RTVSPropertyOp9
 70
     1
102
RTVSPropertyOp10
 70
     1
102
RTVSPropertyOp11
 70
     1
102
RTVSPropertyOp12
 70
     1
102
RTVSPropertyOp13
 70
     1
102
RTVSPropertyOp14
 70
     1
102
RTVSPropertyOp15
 70
     1
102
RTVSPropertyOp16
 70
     1
102
RTVSPropertyOp17
 70
     1
102
RTVSPropertyOp18
 70
     1
102
RTVSPropertyOp19
 70
     1
102
RTVSPropertyOp20
 70
     1
102
RTVSPropertyOp21
 70
     1
102
RTVSPropertyOp22
 70
     1
102
RTVSPropertyOp23
 70
     1
102
RTVSPropertyOp24
 70
     1
102
RTVSPropertyOp25
 70
     1
102
RTVSPropertyOp26
 70
     1
102
RTVSPropertyOp27
 70
     1
102
RTVSPropertyOp28
 70
     1
102
RTVSPropertyOp29
 70
     1
102
RTVSPropertyOp30
 70
     1
102
RTVSPropertyOp31
 70
     1
102
RTVSPropertyOp32
 70
     1
  0
XRECORD
  5
3BD
102
{ACAD_REACTORS
330
3BC
102
}
330
3BC
100
AcDbXrecord
280
     1
102
RTVSPropertyOp0
 70
     1
102
RTVSPropertyOp1
 70
     1
102
RTVSPropertyOp2
 70
     1
102
RTVSPropertyOp3
 70
     1
102
RTVSPropertyOp4
 70
     1
102
RTVSPropertyOp5
 70
     1
102
RTVSPropertyOp6
 70
     1
102
RTVSPropertyOp7
 70
     1
102
RTVSPropertyOp8
 70
     1
102
RTVSPropertyOp9
 70
     1
102
RTVSPropertyOp10
 70
     1
102
RTVSPropertyOp11
 70
     1
102
RTVSPropertyOp12
 70
     1
102
RTVSPropertyOp13
 70
     1
102
RTVSPropertyOp14
 70
     1
102
RTVSPropertyOp15
 70
     1
102
RTVSPropertyOp16
 70
     1
102
RTVSPropertyOp17
 70
     1
102
RTVSPropertyOp18
 70
     1
102
RTVSPropertyOp19
 70
     1
102
RTVSPropertyOp20
 70
     1
102
RTVSPropertyOp21
 70
     1
102
RTVSPropertyOp22
 70
     1
102
RTVSPropertyOp23
 70
     1
102
RTVSPropertyOp24
 70
     1
102
RTVSPropertyOp25
 70
     1
102
RTVSPropertyOp26
 70
     1
102
RTVSPropertyOp27
 70
     1
102
RTVSPropertyOp28
 70
     1
102
RTVSPropertyOp29
 70
     1
102
RTVSPropertyOp30
 70
     1
102
RTVSPropertyOp31
 70
     1
102
RTVSPropertyOp32
 70
     1
  0
XRECORD
  5
3C5
102
{ACAD_REACTORS
330
3C4
102
}
330
3C4
100
AcDbXrecord
280
     1
102
RTVSPropertyOp0
 70
     1
102
RTVSPropertyOp1
 70
     1
102
RTVSPropertyOp2
 70
     1
102
RTVSPropertyOp3
 70
     1
102
RTVSPropertyOp4
 70
     1
102
RTVSPropertyOp5
 70
     1
102
RTVSPropertyOp6
 70
     1
102
RTVSPropertyOp7
 70
     1
102
RTVSPropertyOp8
 70
     1
102
RTVSPropertyOp9
 70
     1
102
RTVSPropertyOp10
 70
     1
102
RTVSPropertyOp11
 70
     1
102
RTVSPropertyOp12
 70
     1
102
RTVSPropertyOp13
 70
     1
102
RTVSPropertyOp14
 70
     1
102
RTVSPropertyOp15
 70
     1
102
RTVSPropertyOp16
 70
     1
102
RTVSPropertyOp17
 70
     1
102
RTVSPropertyOp18
 70
     1
102
RTVSPropertyOp19
 70
     1
102
RTVSPropertyOp20
 70
     1
102
RTVSPropertyOp21
 70
     1
102
RTVSPropertyOp22
 70
     1
102
RTVSPropertyOp23
 70
     1
102
RTVSPropertyOp24
 70
     1
102
RTVSPropertyOp25
 70
     1
102
RTVSPropertyOp26
 70
     1
102
RTVSPropertyOp27
 70
     1
102
RTVSPropertyOp28
 70
     1
102
RTVSPropertyOp29
 70
     1
102
RTVSPropertyOp30
 70
     1
102
RTVSPropertyOp31
 70
     1
102
RTVSPropertyOp32
 70
     1
  0
XRECORD
  5
3B7
102
{ACAD_REACTORS
330
3B6
102
}
330
3B6
100
AcDbXrecord
280
     1
102
RTVSPropertyOp0
 70
     1
102
RTVSPropertyOp1
 70
     1
102
RTVSPropertyOp2
 70
     1
102
RTVSPropertyOp3
 70
     1
102
RTVSPropertyOp4
 70
     1
102
RTVSPropertyOp5
 70
     1
102
RTVSPropertyOp6
 70
     1
102
RTVSPropertyOp7
 70
     1
102
RTVSPropertyOp8
 70
     1
102
RTVSPropertyOp9
 70
     1
102
RTVSPropertyOp10
 70
     1
102
RTVSPropertyOp11
 70
     1
102
RTVSPropertyOp12
 70
     1
102
RTVSPropertyOp13
 70
     1
102
RTVSPropertyOp14
 70
     1
102
RTVSPropertyOp15
 70
     1
102
RTVSPropertyOp16
 70
     1
102
RTVSPropertyOp17
 70
     1
102
RTVSPropertyOp18
 70
     1
102
RTVSPropertyOp19
 70
     1
102
RTVSPropertyOp20
 70
     1
102
RTVSPropertyOp21
 70
     1
102
RTVSPropertyOp22
 70
     1
102
RTVSPropertyOp23
 70
     1
102
RTVSPropertyOp24
 70
     1
102
RTVSPropertyOp25
 70
     1
102
RTVSPropertyOp26
 70
     1
102
RTVSPropertyOp27
 70
     1
102
RTVSPropertyOp28
 70
     1
102
RTVSPropertyOp29
 70
     1
102
RTVSPropertyOp30
 70
     1
102
RTVSPropertyOp31
 70
     1
102
RTVSPropertyOp32
 70
     1
  0
XRECORD
  5
3BB
102
{ACAD_REACTORS
330
3BA
102
}
330
3BA
100
AcDbXrecord
280
     1
102
RTVSPropertyOp0
 70
     1
102
RTVSPropertyOp1
 70
     1
102
RTVSPropertyOp2
 70
     1
102
RTVSPropertyOp3
 70
     1
102
RTVSPropertyOp4
 70
     1
102
RTVSPropertyOp5
 70
     1
102
RTVSPropertyOp6
 70
     1
102
RTVSPropertyOp7
 70
     1
102
RTVSPropertyOp8
 70
     1
102
RTVSPropertyOp9
 70
     1
102
RTVSPropertyOp10
 70
     1
102
RTVSPropertyOp11
 70
     1
102
RTVSPropertyOp12
 70
     1
102
RTVSPropertyOp13
 70
     1
102
RTVSPropertyOp14
 70
     1
102
RTVSPropertyOp15
 70
     1
102
RTVSPropertyOp16
 70
     1
102
RTVSPropertyOp17
 70
     1
102
RTVSPropertyOp18
 70
     1
102
RTVSPropertyOp19
 70
     1
102
RTVSPropertyOp20
 70
     1
102
RTVSPropertyOp21
 70
     1
102
RTVSPropertyOp22
 70
     1
102
RTVSPropertyOp23
 70
     1
102
RTVSPropertyOp24
 70
     1
102
RTVSPropertyOp25
 70
     1
102
RTVSPropertyOp26
 70
     1
102
RTVSPropertyOp27
 70
     1
102
RTVSPropertyOp28
 70
     1
102
RTVSPropertyOp29
 70
     1
102
RTVSPropertyOp30
 70
     1
102
RTVSPropertyOp31
 70
     1
102
RTVSPropertyOp32
 70
     1
  0
XRECORD
  5
3D5
102
{ACAD_REACTORS
330
3D4
102
}
330
3D4
100
AcDbXrecord
280
     1
102
RTVSPropertyOp0
 70
     0
102
RTVSPropertyOp1
 70
     0
102
RTVSPropertyOp2
 70
     0
102
RTVSPropertyOp3
 70
     0
102
RTVSPropertyOp4
 70
     0
102
RTVSPropertyOp5
 70
     0
102
RTVSPropertyOp6
 70
     0
102
RTVSPropertyOp7
 70
     0
102
RTVSPropertyOp8
 70
     0
102
RTVSPropertyOp9
 70
     0
102
RTVSPropertyOp10
 70
     0
102
RTVSPropertyOp11
 70
     0
102
RTVSPropertyOp12
 70
     0
102
RTVSPropertyOp13
 70
     0
102
RTVSPropertyOp14
 70
     2
102
RTVSPropertyOp15
 70
     0
102
RTVSPropertyOp16
 70
     0
102
RTVSPropertyOp17
 70
     0
102
RTVSPropertyOp18
 70
     0
102
RTVSPropertyOp19
 70
     0
102
RTVSPropertyOp20
 70
     0
102
RTVSPropertyOp21
 70
     0
102
RTVSPropertyOp22
 70
     0
102
RTVSPropertyOp23
 70
     0
102
RTVSPropertyOp24
 70
     0
102
RTVSPropertyOp25
 70
     0
102
RTVSPropertyOp26
 70
     0
102
RTVSPropertyOp27
 70
     0
102
RTVSPropertyOp28
 70
     0
102
RTVSPropertyOp29
 70
     0
102
RTVSPropertyOp30
 70
     0
102
RTVSPropertyOp31
 70
     0
102
RTVSPropertyOp32
 70
     0
  0
XRECORD
  5
3C3
102
{ACAD_REACTORS
330
3C2
102
}
330
3C2
100
AcDbXrecord
280
     1
102
RTVSPropertyOp0
 70
     1
102
RTVSPropertyOp1
 70
     1
102
RTVSPropertyOp2
 70
     1
102
RTVSPropertyOp3
 70
     1
102
RTVSPropertyOp4
 70
     1
102
RTVSPropertyOp5
 70
     1
102
RTVSPropertyOp6
 70
     1
102
RTVSPropertyOp7
 70
     1
102
RTVSPropertyOp8
 70
     1
102
RTVSPropertyOp9
 70
     1
102
RTVSPropertyOp10
 70
     1
102
RTVSPropertyOp11
 70
     1
102
RTVSPropertyOp12
 70
     1
102
RTVSPropertyOp13
 70
     1
102
RTVSPropertyOp14
 70
     1
102
RTVSPropertyOp15
 70
     1
102
RTVSPropertyOp16
 70
     1
102
RTVSPropertyOp17
 70
     1
102
RTVSPropertyOp18
 70
     1
102
RTVSPropertyOp19
 70
     1
102
RTVSPropertyOp20
 70
     1
102
RTVSPropertyOp21
 70
     1
102
RTVSPropertyOp22
 70
     1
102
RTVSPropertyOp23
 70
     1
102
RTVSPropertyOp24
 70
     1
102
RTVSPropertyOp25
 70
     1
102
RTVSPropertyOp26
 70
     1
102
RTVSPropertyOp27
 70
     1
102
RTVSPropertyOp28
 70
     1
102
RTVSPropertyOp29
 70
     1
102
RTVSPropertyOp30
 70
     1
102
RTVSPropertyOp31
 70
     1
102
RTVSPropertyOp32
 70
     1
  0
XRECORD
  5
3A7
102
{ACAD_REACTORS
330
3A6
102
}
330
3A6
100
AcDbXrecord
280
     1
102
RTVSPropertyOp0
 70
     1
102
RTVSPropertyOp1
 70
     1
102
RTVSPropertyOp2
 70
     1
102
RTVSPropertyOp3
 70
     1
102
RTVSPropertyOp4
 70
     1
102
RTVSPropertyOp5
 70
     1
102
RTVSPropertyOp6
 70
     1
102
RTVSPropertyOp7
 70
     1
102
RTVSPropertyOp8
 70
     1
102
RTVSPropertyOp9
 70
     1
102
RTVSPropertyOp10
 70
     1
102
RTVSPropertyOp11
 70
     1
102
RTVSPropertyOp12
 70
     1
102
RTVSPropertyOp13
 70
     1
102
RTVSPropertyOp14
 70
     1
102
RTVSPropertyOp15
 70
     1
102
RTVSPropertyOp16
 70
     1
102
RTVSPropertyOp17
 70
     1
102
RTVSPropertyOp18
 70
     1
102
RTVSPropertyOp19
 70
     1
102
RTVSPropertyOp20
 70
     1
102
RTVSPropertyOp21
 70
     1
102
RTVSPropertyOp22
 70
     1
102
RTVSPropertyOp23
 70
     1
102
RTVSPropertyOp24
 70
     1
102
RTVSPropertyOp25
 70
     1
102
RTVSPropertyOp26
 70
     1
102
RTVSPropertyOp27
 70
     1
102
RTVSPropertyOp28
 70
     1
102
RTVSPropertyOp29
 70
     1
102
RTVSPropertyOp30
 70
     1
102
RTVSPropertyOp31
 70
     1
102
RTVSPropertyOp32
 70
     1
  0
XRECORD
  5
3A9
102
{ACAD_REACTORS
330
3A8
102
}
330
3A8
100
AcDbXrecord
280
     1
102
RTVSPropertyOp0
 70
     1
102
RTVSPropertyOp1
 70
     1
102
RTVSPropertyOp2
 70
     1
102
RTVSPropertyOp3
 70
     1
102
RTVSPropertyOp4
 70
     1
102
RTVSPropertyOp5
 70
     1
102
RTVSPropertyOp6
 70
     1
102
RTVSPropertyOp7
 70
     1
102
RTVSPropertyOp8
 70
     1
102
RTVSPropertyOp9
 70
     1
102
RTVSPropertyOp10
 70
     1
102
RTVSPropertyOp11
 70
     1
102
RTVSPropertyOp12
 70
     1
102
RTVSPropertyOp13
 70
     1
102
RTVSPropertyOp14
 70
     1
102
RTVSPropertyOp15
 70
     1
102
RTVSPropertyOp16
 70
     1
102
RTVSPropertyOp17
 70
     1
102
RTVSPropertyOp18
 70
     1
102
RTVSPropertyOp19
 70
     1
102
RTVSPropertyOp20
 70
     1
102
RTVSPropertyOp21
 70
     1
102
RTVSPropertyOp22
 70
     1
102
RTVSPropertyOp23
 70
     1
102
RTVSPropertyOp24
 70
     1
102
RTVSPropertyOp25
 70
     1
102
RTVSPropertyOp26
 70
     1
102
RTVSPropertyOp27
 70
     1
102
RTVSPropertyOp28
 70
     1
102
RTVSPropertyOp29
 70
     1
102
RTVSPropertyOp30
 70
     1
102
RTVSPropertyOp31
 70
     1
102
RTVSPropertyOp32
 70
     1
  0
XRECORD
  5
3AB
102
{ACAD_REACTORS
330
3AA
102
}
330
3AA
100
AcDbXrecord
280
     1
102
RTVSPropertyOp0
 70
     1
102
RTVSPropertyOp1
 70
     1
102
RTVSPropertyOp2
 70
     1
102
RTVSPropertyOp3
 70
     1
102
RTVSPropertyOp4
 70
     1
102
RTVSPropertyOp5
 70
     1
102
RTVSPropertyOp6
 70
     1
102
RTVSPropertyOp7
 70
     1
102
RTVSPropertyOp8
 70
     1
102
RTVSPropertyOp9
 70
     1
102
RTVSPropertyOp10
 70
     1
102
RTVSPropertyOp11
 70
     1
102
RTVSPropertyOp12
 70
     1
102
RTVSPropertyOp13
 70
     1
102
RTVSPropertyOp14
 70
     1
102
RTVSPropertyOp15
 70
     1
102
RTVSPropertyOp16
 70
     1
102
RTVSPropertyOp17
 70
     1
102
RTVSPropertyOp18
 70
     1
102
RTVSPropertyOp19
 70
     1
102
RTVSPropertyOp20
 70
     1
102
RTVSPropertyOp21
 70
     1
102
RTVSPropertyOp22
 70
     1
102
RTVSPropertyOp23
 70
     1
102
RTVSPropertyOp24
 70
     1
102
RTVSPropertyOp25
 70
     1
102
RTVSPropertyOp26
 70
     1
102
RTVSPropertyOp27
 70
     1
102
RTVSPropertyOp28
 70
     1
102
RTVSPropertyOp29
 70
     1
102
RTVSPropertyOp30
 70
     1
102
RTVSPropertyOp31
 70
     1
102
RTVSPropertyOp32
 70
     1
  0
XRECORD
  5
3AD
102
{ACAD_REACTORS
330
3AC
102
}
330
3AC
100
AcDbXrecord
280
     1
102
RTVSPropertyOp0
 70
     1
102
RTVSPropertyOp1
 70
     1
102
RTVSPropertyOp2
 70
     1
102
RTVSPropertyOp3
 70
     1
102
RTVSPropertyOp4
 70
     1
102
RTVSPropertyOp5
 70
     1
102
RTVSPropertyOp6
 70
     1
102
RTVSPropertyOp7
 70
     1
102
RTVSPropertyOp8
 70
     1
102
RTVSPropertyOp9
 70
     1
102
RTVSPropertyOp10
 70
     1
102
RTVSPropertyOp11
 70
     1
102
RTVSPropertyOp12
 70
     1
102
RTVSPropertyOp13
 70
     1
102
RTVSPropertyOp14
 70
     1
102
RTVSPropertyOp15
 70
     1
102
RTVSPropertyOp16
 70
     1
102
RTVSPropertyOp17
 70
     1
102
RTVSPropertyOp18
 70
     1
102
RTVSPropertyOp19
 70
     1
102
RTVSPropertyOp20
 70
     1
102
RTVSPropertyOp21
 70
     1
102
RTVSPropertyOp22
 70
     1
102
RTVSPropertyOp23
 70
     1
102
RTVSPropertyOp24
 70
     1
102
RTVSPropertyOp25
 70
     1
102
RTVSPropertyOp26
 70
     1
102
RTVSPropertyOp27
 70
     1
102
RTVSPropertyOp28
 70
     1
102
RTVSPropertyOp29
 70
     1
102
RTVSPropertyOp30
 70
     1
102
RTVSPropertyOp31
 70
     1
102
RTVSPropertyOp32
 70
     1
  0
XRECORD
  5
3B5
102
{ACAD_REACTORS
330
3B4
102
}
330
3B4
100
AcDbXrecord
280
     1
102
RTVSPropertyOp0
 70
     1
102
RTVSPropertyOp1
 70
     1
102
RTVSPropertyOp2
 70
     1
102
RTVSPropertyOp3
 70
     1
102
RTVSPropertyOp4
 70
     1
102
RTVSPropertyOp5
 70
     1
102
RTVSPropertyOp6
 70
     1
102
RTVSPropertyOp7
 70
     1
102
RTVSPropertyOp8
 70
     1
102
RTVSPropertyOp9
 70
     1
102
RTVSPropertyOp10
 70
     1
102
RTVSPropertyOp11
 70
     1
102
RTVSPropertyOp12
 70
     1
102
RTVSPropertyOp13
 70
     1
102
RTVSPropertyOp14
 70
     1
102
RTVSPropertyOp15
 70
     1
102
RTVSPropertyOp16
 70
     1
102
RTVSPropertyOp17
 70
     1
102
RTVSPropertyOp18
 70
     1
102
RTVSPropertyOp19
 70
     1
102
RTVSPropertyOp20
 70
     1
102
RTVSPropertyOp21
 70
     1
102
RTVSPropertyOp22
 70
     1
102
RTVSPropertyOp23
 70
     1
102
RTVSPropertyOp24
 70
     1
102
RTVSPropertyOp25
 70
     1
102
RTVSPropertyOp26
 70
     1
102
RTVSPropertyOp27
 70
     1
102
RTVSPropertyOp28
 70
     1
102
RTVSPropertyOp29
 70
     1
102
RTVSPropertyOp30
 70
     1
102
RTVSPropertyOp31
 70
     1
102
RTVSPropertyOp32
 70
     1
  0
XRECORD
  5
3D1
102
{ACAD_REACTORS
330
3D0
102
}
330
3D0
100
AcDbXrecord
280
     1
102
RTVSPropertyOp0
 70
     0
102
RTVSPropertyOp1
 70
     0
102
RTVSPropertyOp2
 70
     0
102
RTVSPropertyOp3
 70
     0
102
RTVSPropertyOp4
 70
     0
102
RTVSPropertyOp5
 70
     0
102
RTVSPropertyOp6
 70
     0
102
RTVSPropertyOp7
 70
     0
102
RTVSPropertyOp8
 70
     0
102
RTVSPropertyOp9
 70
     0
102
RTVSPropertyOp10
 70
     0
102
RTVSPropertyOp11
 70
     0
102
RTVSPropertyOp12
 70
     0
102
RTVSPropertyOp13
 70
     0
102
RTVSPropertyOp14
 70
     2
102
RTVSPropertyOp15
 70
     0
102
RTVSPropertyOp16
 70
     0
102
RTVSPropertyOp17
 70
     0
102
RTVSPropertyOp18
 70
     0
102
RTVSPropertyOp19
 70
     0
102
RTVSPropertyOp20
 70
     0
102
RTVSPropertyOp21
 70
     0
102
RTVSPropertyOp22
 70
     0
102
RTVSPropertyOp23
 70
     0
102
RTVSPropertyOp24
 70
     0
102
RTVSPropertyOp25
 70
     0
102
RTVSPropertyOp26
 70
     0
102
RTVSPropertyOp27
 70
     0
102
RTVSPropertyOp28
 70
     0
102
RTVSPropertyOp29
 70
     0
102
RTVSPropertyOp30
 70
     0
102
RTVSPropertyOp31
 70
     0
102
RTVSPropertyOp32
 70
     0
  0
XRECORD
  5
3C1
102
{ACAD_REACTORS
330
3C0
102
}
330
3C0
100
AcDbXrecord
280
     1
102
RTVSPropertyOp0
 70
     1
102
RTVSPropertyOp1
 70
     1
102
RTVSPropertyOp2
 70
     1
102
RTVSPropertyOp3
 70
     1
102
RTVSPropertyOp4
 70
     1
102
RTVSPropertyOp5
 70
     1
102
RTVSPropertyOp6
 70
     1
102
RTVSPropertyOp7
 70
     1
102
RTVSPropertyOp8
 70
     1
102
RTVSPropertyOp9
 70
     1
102
RTVSPropertyOp10
 70
     1
102
RTVSPropertyOp11
 70
     1
102
RTVSPropertyOp12
 70
     1
102
RTVSPropertyOp13
 70
     1
102
RTVSPropertyOp14
 70
     1
102
RTVSPropertyOp15
 70
     1
102
RTVSPropertyOp16
 70
     1
102
RTVSPropertyOp17
 70
     1
102
RTVSPropertyOp18
 70
     1
102
RTVSPropertyOp19
 70
     1
102
RTVSPropertyOp20
 70
     1
102
RTVSPropertyOp21
 70
     1
102
RTVSPropertyOp22
 70
     1
102
RTVSPropertyOp23
 70
     1
102
RTVSPropertyOp24
 70
     1
102
RTVSPropertyOp25
 70
     1
102
RTVSPropertyOp26
 70
     1
102
RTVSPropertyOp27
 70
     1
102
RTVSPropertyOp28
 70
     1
102
RTVSPropertyOp29
 70
     1
102
RTVSPropertyOp30
 70
     1
102
RTVSPropertyOp31
 70
     1
102
RTVSPropertyOp32
 70
     1
  0
XRECORD
  5
3D3
102
{ACAD_REACTORS
330
3D2
102
}
330
3D2
100
AcDbXrecord
280
     1
102
RTVSPropertyOp0
 70
     0
102
RTVSPropertyOp1
 70
     0
102
RTVSPropertyOp2
 70
     0
102
RTVSPropertyOp3
 70
     0
102
RTVSPropertyOp4
 70
     0
102
RTVSPropertyOp5
 70
     0
102
RTVSPropertyOp6
 70
     0
102
RTVSPropertyOp7
 70
     0
102
RTVSPropertyOp8
 70
     0
102
RTVSPropertyOp9
 70
     0
102
RTVSPropertyOp10
 70
     0
102
RTVSPropertyOp11
 70
     0
102
RTVSPropertyOp12
 70
     0
102
RTVSPropertyOp13
 70
     0
102
RTVSPropertyOp14
 70
     2
102
RTVSPropertyOp15
 70
     0
102
RTVSPropertyOp16
 70
     0
102
RTVSPropertyOp17
 70
     0
102
RTVSPropertyOp18
 70
     0
102
RTVSPropertyOp19
 70
     0
102
RTVSPropertyOp20
 70
     0
102
RTVSPropertyOp21
 70
     0
102
RTVSPropertyOp22
 70
     0
102
RTVSPropertyOp23
 70
     0
102
RTVSPropertyOp24
 70
     0
102
RTVSPropertyOp25
 70
     0
102
RTVSPropertyOp26
 70
     0
102
RTVSPropertyOp27
 70
     0
102
RTVSPropertyOp28
 70
     0
102
RTVSPropertyOp29
 70
     0
102
RTVSPropertyOp30
 70
     0
102
RTVSPropertyOp31
 70
     0
102
RTVSPropertyOp32
 70
     0
  0
XRECORD
  5
3B9
102
{ACAD_REACTORS
330
3B8
102
}
330
3B8
100
AcDbXrecord
280
     1
102
RTVSPropertyOp0
 70
     1
102
RTVSPropertyOp1
 70
     1
102
RTVSPropertyOp2
 70
     1
102
RTVSPropertyOp3
 70
     1
102
RTVSPropertyOp4
 70
     1
102
RTVSPropertyOp5
 70
     1
102
RTVSPropertyOp6
 70
     1
102
RTVSPropertyOp7
 70
     1
102
RTVSPropertyOp8
 70
     1
102
RTVSPropertyOp9
 70
     1
102
RTVSPropertyOp10
 70
     1
102
RTVSPropertyOp11
 70
     1
102
RTVSPropertyOp12
 70
     1
102
RTVSPropertyOp13
 70
     1
102
RTVSPropertyOp14
 70
     1
102
RTVSPropertyOp15
 70
     1
102
RTVSPropertyOp16
 70
     1
102
RTVSPropertyOp17
 70
     1
102
RTVSPropertyOp18
 70
     1
102
RTVSPropertyOp19
 70
     1
102
RTVSPropertyOp20
 70
     1
102
RTVSPropertyOp21
 70
     1
102
RTVSPropertyOp22
 70
     1
102
RTVSPropertyOp23
 70
     1
102
RTVSPropertyOp24
 70
     1
102
RTVSPropertyOp25
 70
     1
102
RTVSPropertyOp26
 70
     1
102
RTVSPropertyOp27
 70
     1
102
RTVSPropertyOp28
 70
     1
102
RTVSPropertyOp29
 70
     1
102
RTVSPropertyOp30
 70
     1
102
RTVSPropertyOp31
 70
     1
102
RTVSPropertyOp32
 70
     1
  0
XRECORD
  5
3CF
102
{ACAD_REACTORS
330
3CE
102
}
330
3CE
100
AcDbXrecord
280
     1
102
RTVSPropertyOp0
 70
     1
102
RTVSPropertyOp1
 70
     1
102
RTVSPropertyOp2
 70
     1
102
RTVSPropertyOp3
 70
     1
102
RTVSPropertyOp4
 70
     1
102
RTVSPropertyOp5
 70
     1
102
RTVSPropertyOp6
 70
     1
102
RTVSPropertyOp7
 70
     1
102
RTVSPropertyOp8
 70
     1
102
RTVSPropertyOp9
 70
     1
102
RTVSPropertyOp10
 70
     1
102
RTVSPropertyOp11
 70
     1
102
RTVSPropertyOp12
 70
     1
102
RTVSPropertyOp13
 70
     1
102
RTVSPropertyOp14
 70
     1
102
RTVSPropertyOp15
 70
     1
102
RTVSPropertyOp16
 70
     1
102
RTVSPropertyOp17
 70
     1
102
RTVSPropertyOp18
 70
     1
102
RTVSPropertyOp19
 70
     1
102
RTVSPropertyOp20
 70
     1
102
RTVSPropertyOp21
 70
     1
102
RTVSPropertyOp22
 70
     1
102
RTVSPropertyOp23
 70
     1
102
RTVSPropertyOp24
 70
     1
102
RTVSPropertyOp25
 70
     1
102
RTVSPropertyOp26
 70
     1
102
RTVSPropertyOp27
 70
     1
102
RTVSPropertyOp28
 70
     1
102
RTVSPropertyOp29
 70
     1
102
RTVSPropertyOp30
 70
     1
102
RTVSPropertyOp31
 70
     1
102
RTVSPropertyOp32
 70
     1
  0
XRECORD
  5
3CD
102
{ACAD_REACTORS
330
3CC
102
}
330
3CC
100
AcDbXrecord
280
     1
102
RTVSPropertyOp0
 70
     1
102
RTVSPropertyOp1
 70
     1
102
RTVSPropertyOp2
 70
     1
102
RTVSPropertyOp3
 70
     1
102
RTVSPropertyOp4
 70
     1
102
RTVSPropertyOp5
 70
     1
102
RTVSPropertyOp6
 70
     1
102
RTVSPropertyOp7
 70
     1
102
RTVSPropertyOp8
 70
     1
102
RTVSPropertyOp9
 70
     1
102
RTVSPropertyOp10
 70
     1
102
RTVSPropertyOp11
 70
     1
102
RTVSPropertyOp12
 70
     1
102
RTVSPropertyOp13
 70
     1
102
RTVSPropertyOp14
 70
     1
102
RTVSPropertyOp15
 70
     1
102
RTVSPropertyOp16
 70
     1
102
RTVSPropertyOp17
 70
     1
102
RTVSPropertyOp18
 70
     1
102
RTVSPropertyOp19
 70
     1
102
RTVSPropertyOp20
 70
     1
102
RTVSPropertyOp21
 70
     1
102
RTVSPropertyOp22
 70
     1
102
RTVSPropertyOp23
 70
     1
102
RTVSPropertyOp24
 70
     1
102
RTVSPropertyOp25
 70
     1
102
RTVSPropertyOp26
 70
     1
102
RTVSPropertyOp27
 70
     1
102
RTVSPropertyOp28
 70
     1
102
RTVSPropertyOp29
 70
     1
102
RTVSPropertyOp30
 70
     1
102
RTVSPropertyOp31
 70
     1
102
RTVSPropertyOp32
 70
     1
  0
XRECORD
  5
3C7
102
{ACAD_REACTORS
330
3C6
102
}
330
3C6
100
AcDbXrecord
280
     1
102
RTVSPropertyOp0
 70
     1
102
RTVSPropertyOp1
 70
     1
102
RTVSPropertyOp2
 70
     1
102
RTVSPropertyOp3
 70
     1
102
RTVSPropertyOp4
 70
     1
102
RTVSPropertyOp5
 70
     1
102
RTVSPropertyOp6
 70
     1
102
RTVSPropertyOp7
 70
     1
102
RTVSPropertyOp8
 70
     1
102
RTVSPropertyOp9
 70
     1
102
RTVSPropertyOp10
 70
     1
102
RTVSPropertyOp11
 70
     1
102
RTVSPropertyOp12
 70
     1
102
RTVSPropertyOp13
 70
     1
102
RTVSPropertyOp14
 70
     1
102
RTVSPropertyOp15
 70
     1
102
RTVSPropertyOp16
 70
     1
102
RTVSPropertyOp17
 70
     1
102
RTVSPropertyOp18
 70
     1
102
RTVSPropertyOp19
 70
     1
102
RTVSPropertyOp20
 70
     1
102
RTVSPropertyOp21
 70
     1
102
RTVSPropertyOp22
 70
     1
102
RTVSPropertyOp23
 70
     1
102
RTVSPropertyOp24
 70
     1
102
RTVSPropertyOp25
 70
     1
102
RTVSPropertyOp26
 70
     1
102
RTVSPropertyOp27
 70
     1
102
RTVSPropertyOp28
 70
     1
102
RTVSPropertyOp29
 70
     1
102
RTVSPropertyOp30
 70
     1
102
RTVSPropertyOp31
 70
     1
102
RTVSPropertyOp32
 70
     1
  0
XRECORD
  5
3C9
102
{ACAD_REACTORS
330
3C8
102
}
330
3C8
100
AcDbXrecord
280
     1
102
RTVSPropertyOp0
 70
     1
102
RTVSPropertyOp1
 70
     1
102
RTVSPropertyOp2
 70
     1
102
RTVSPropertyOp3
 70
     1
102
RTVSPropertyOp4
 70
     1
102
RTVSPropertyOp5
 70
     1
102
RTVSPropertyOp6
 70
     1
102
RTVSPropertyOp7
 70
     1
102
RTVSPropertyOp8
 70
     1
102
RTVSPropertyOp9
 70
     1
102
RTVSPropertyOp10
 70
     1
102
RTVSPropertyOp11
 70
     1
102
RTVSPropertyOp12
 70
     1
102
RTVSPropertyOp13
 70
     1
102
RTVSPropertyOp14
 70
     1
102
RTVSPropertyOp15
 70
     1
102
RTVSPropertyOp16
 70
     1
102
RTVSPropertyOp17
 70
     1
102
RTVSPropertyOp18
 70
     1
102
RTVSPropertyOp19
 70
     1
102
RTVSPropertyOp20
 70
     1
102
RTVSPropertyOp21
 70
     1
102
RTVSPropertyOp22
 70
     1
102
RTVSPropertyOp23
 70
     1
102
RTVSPropertyOp24
 70
     1
102
RTVSPropertyOp25
 70
     1
102
RTVSPropertyOp26
 70
     1
102
RTVSPropertyOp27
 70
     1
102
RTVSPropertyOp28
 70
     1
102
RTVSPropertyOp29
 70
     1
102
RTVSPropertyOp30
 70
     1
102
RTVSPropertyOp31
 70
     1
102
RTVSPropertyOp32
 70
     1
  0
XRECORD
  5
3BF
102
{ACAD_REACTORS
330
3BE
102
}
330
3BE
100
AcDbXrecord
280
     1
102
RTVSPropertyOp0
 70
     1
102
RTVSPropertyOp1
 70
     1
102
RTVSPropertyOp2
 70
     1
102
RTVSPropertyOp3
 70
     1
102
RTVSPropertyOp4
 70
     1
102
RTVSPropertyOp5
 70
     1
102
RTVSPropertyOp6
 70
     1
102
RTVSPropertyOp7
 70
     1
102
RTVSPropertyOp8
 70
     1
102
RTVSPropertyOp9
 70
     1
102
RTVSPropertyOp10
 70
     1
102
RTVSPropertyOp11
 70
     1
102
RTVSPropertyOp12
 70
     1
102
RTVSPropertyOp13
 70
     1
102
RTVSPropertyOp14
 70
     1
102
RTVSPropertyOp15
 70
     1
102
RTVSPropertyOp16
 70
     1
102
RTVSPropertyOp17
 70
     1
102
RTVSPropertyOp18
 70
     1
102
RTVSPropertyOp19
 70
     1
102
RTVSPropertyOp20
 70
     1
102
RTVSPropertyOp21
 70
     1
102
RTVSPropertyOp22
 70
     1
102
RTVSPropertyOp23
 70
     1
102
RTVSPropertyOp24
 70
     1
102
RTVSPropertyOp25
 70
     1
102
RTVSPropertyOp26
 70
     1
102
RTVSPropertyOp27
 70
     1
102
RTVSPropertyOp28
 70
     1
102
RTVSPropertyOp29
 70
     1
102
RTVSPropertyOp30
 70
     1
102
RTVSPropertyOp31
 70
     1
102
RTVSPropertyOp32
 70
     1
  0
XRECORD
  5
3B3
102
{ACAD_REACTORS
330
3B2
102
}
330
3B2
100
AcDbXrecord
280
     1
102
RTVSPropertyOp0
 70
     1
102
RTVSPropertyOp1
 70
     1
102
RTVSPropertyOp2
 70
     1
102
RTVSPropertyOp3
 70
     1
102
RTVSPropertyOp4
 70
     1
102
RTVSPropertyOp5
 70
     1
102
RTVSPropertyOp6
 70
     1
102
RTVSPropertyOp7
 70
     1
102
RTVSPropertyOp8
 70
     1
102
RTVSPropertyOp9
 70
     1
102
RTVSPropertyOp10
 70
     1
102
RTVSPropertyOp11
 70
     1
102
RTVSPropertyOp12
 70
     1
102
RTVSPropertyOp13
 70
     1
102
RTVSPropertyOp14
 70
     1
102
RTVSPropertyOp15
 70
     1
102
RTVSPropertyOp16
 70
     1
102
RTVSPropertyOp17
 70
     1
102
RTVSPropertyOp18
 70
     1
102
RTVSPropertyOp19
 70
     1
102
RTVSPropertyOp20
 70
     1
102
RTVSPropertyOp21
 70
     1
102
RTVSPropertyOp22
 70
     1
102
RTVSPropertyOp23
 70
     1
102
RTVSPropertyOp24
 70
     1
102
RTVSPropertyOp25
 70
     1
102
RTVSPropertyOp26
 70
     1
102
RTVSPropertyOp27
 70
     1
102
RTVSPropertyOp28
 70
     1
102
RTVSPropertyOp29
 70
     1
102
RTVSPropertyOp30
 70
     1
102
RTVSPropertyOp31
 70
     1
102
RTVSPropertyOp32
 70
     1
  0
XRECORD
  5
3CB
102
{ACAD_REACTORS
330
3CA
102
}
330
3CA
100
AcDbXrecord
280
     1
102
RTVSPropertyOp0
 70
     1
102
RTVSPropertyOp1
 70
     1
102
RTVSPropertyOp2
 70
     1
102
RTVSPropertyOp3
 70
     1
102
RTVSPropertyOp4
 70
     1
102
RTVSPropertyOp5
 70
     1
102
RTVSPropertyOp6
 70
     1
102
RTVSPropertyOp7
 70
     1
102
RTVSPropertyOp8
 70
     1
102
RTVSPropertyOp9
 70
     1
102
RTVSPropertyOp10
 70
     1
102
RTVSPropertyOp11
 70
     1
102
RTVSPropertyOp12
 70
     1
102
RTVSPropertyOp13
 70
     1
102
RTVSPropertyOp14
 70
     1
102
RTVSPropertyOp15
 70
     1
102
RTVSPropertyOp16
 70
     1
102
RTVSPropertyOp17
 70
     1
102
RTVSPropertyOp18
 70
     1
102
RTVSPropertyOp19
 70
     1
102
RTVSPropertyOp20
 70
     1
102
RTVSPropertyOp21
 70
     1
102
RTVSPropertyOp22
 70
     1
102
RTVSPropertyOp23
 70
     1
102
RTVSPropertyOp24
 70
     1
102
RTVSPropertyOp25
 70
     1
102
RTVSPropertyOp26
 70
     1
102
RTVSPropertyOp27
 70
     1
102
RTVSPropertyOp28
 70
     1
102
RTVSPropertyOp29
 70
     1
102
RTVSPropertyOp30
 70
     1
102
RTVSPropertyOp31
 70
     1
102
RTVSPropertyOp32
 70
     1
  0
ENDSEC
  0
EOF
