  0
SECTION
  2
HEADER
  9
$ACADVER
  1
AC1015
  9
$ACADMAINTVER
 70
    20
  9
$DWGCODEPAGE
  3
ANSI_936
  9
$INSBASE
 10
0.0
 20
0.0
 30
0.0
  9
$EXTMIN
 10
825.1017085436151
 20
256.8077598091516
 30
0.0
  9
$EXTMAX
 10
1599.801708543615
 20
739.507759809152
 30
0.0
  9
$LIMMIN
 10
0.0
 20
0.0
  9
$LIMMAX
 10
12.0
 20
9.0
  9
$ORTHOMODE
 70
     0
  9
$REGENMODE
 70
     1
  9
$FILLMODE
 70
     1
  9
$QTEXTMODE
 70
     0
  9
$MIRRTEXT
 70
     0
  9
$LTSCALE
 40
1.0
  9
$ATTMODE
 70
     1
  9
$TEXTSIZE
 40
0.2
  9
$TRACEWID
 40
0.05
  9
$TEXTSTYLE
  7
Standard
  9
$CLAYER
  8
0
  9
$CELTYPE
  6
ByLayer
  9
$CECOLOR
 62
   256
  9
$CELTSCALE
 40
1.0
  9
$DISPSILH
 70
     0
  9
$DIMSCALE
 40
1.0
  9
$DIMASZ
 40
0.18
  9
$DIMEXO
 40
0.0625
  9
$DIMDLI
 40
0.38
  9
$DIMRND
 40
0.0
  9
$DIMDLE
 40
0.0
  9
$DIMEXE
 40
0.18
  9
$DIMTP
 40
0.0
  9
$DIMTM
 40
0.0
  9
$DIMTXT
 40
0.18
  9
$DIMCEN
 40
0.09
  9
$DIMTSZ
 40
0.0
  9
$DIMTOL
 70
     0
  9
$DIMLIM
 70
     0
  9
$DIMTIH
 70
     1
  9
$DIMTOH
 70
     1
  9
$DIMSE1
 70
     0
  9
$DIMSE2
 70
     0
  9
$DIMTAD
 70
     0
  9
$DIMZIN
 70
     0
  9
$DIMBLK
  1

  9
$DIMASO
 70
     1
  9
$DIMSHO
 70
     1
  9
$DIMPOST
  1

  9
$DIMAPOST
  1

  9
$DIMALT
 70
     0
  9
$DIMALTD
 70
     2
  9
$DIMALTF
 40
25.4
  9
$DIMLFAC
 40
1.0
  9
$DIMTOFL
 70
     0
  9
$DIMTVP
 40
0.0
  9
$DIMTIX
 70
     0
  9
$DIMSOXD
 70
     0
  9
$DIMSAH
 70
     0
  9
$DIMBLK1
  1

  9
$DIMBLK2
  1

  9
$DIMSTYLE
  2
Standard
  9
$DIMCLRD
 70
     0
  9
$DIMCLRE
 70
     0
  9
$DIMCLRT
 70
     0
  9
$DIMTFAC
 40
1.0
  9
$DIMGAP
 40
0.09
  9
$DIMJUST
 70
     0
  9
$DIMSD1
 70
     0
  9
$DIMSD2
 70
     0
  9
$DIMTOLJ
 70
     1
  9
$DIMTZIN
 70
     0
  9
$DIMALTZ
 70
     0
  9
$DIMALTTZ
 70
     0
  9
$DIMUPT
 70
     0
  9
$DIMDEC
 70
     4
  9
$DIMTDEC
 70
     4
  9
$DIMALTU
 70
     2
  9
$DIMALTTD
 70
     2
  9
$DIMTXSTY
  7
Standard
  9
$DIMAUNIT
 70
     0
  9
$DIMADEC
 70
     0
  9
$DIMALTRND
 40
0.0
  9
$DIMAZIN
 70
     0
  9
$DIMDSEP
 70
    46
  9
$DIMATFIT
 70
     3
  9
$DIMFRAC
 70
     0
  9
$DIMLDRBLK
  1

  9
$DIMLUNIT
 70
     2
  9
$DIMLWD
 70
    -2
  9
$DIMLWE
 70
    -2
  9
$DIMTMOVE
 70
     0
  9
$LUNITS
 70
     2
  9
$LUPREC
 70
     4
  9
$SKETCHINC
 40
0.1
  9
$FILLETRAD
 40
0.0
  9
$AUNITS
 70
     0
  9
$AUPREC
 70
     0
  9
$MENU
  1
.
  9
$ELEVATION
 40
0.0
  9
$PELEVATION
 40
0.0
  9
$THICKNESS
 40
0.0
  9
$LIMCHECK
 70
     0
  9
$CHAMFERA
 40
0.0
  9
$CHAMFERB
 40
0.0
  9
$CHAMFERC
 40
0.0
  9
$CHAMFERD
 40
0.0
  9
$SKPOLY
 70
     0
  9
$TDCREATE
 40
2456023.586240185
  9
$TDUCREATE
 40
2456023.252906852
  9
$TDUPDATE
 40
2457169.706134919
  9
$TDUUPDATE
 40
2457169.372801585
  9
$TDINDWG
 40
0.0078714931
  9
$TDUSRTIMER
 40
0.0078704051
  9
$USRTIMER
 70
     1
  9
$ANGBASE
 50
0.0
  9
$ANGDIR
 70
     0
  9
$PDMODE
 70
     0
  9
$PDSIZE
 40
0.0
  9
$PLINEWID
 40
0.0
  9
$SPLFRAME
 70
     0
  9
$SPLINETYPE
 70
     6
  9
$SPLINESEGS
 70
     8
  9
$HANDSEED
  5
61F
  9
$SURFTAB1
 70
     6
  9
$SURFTAB2
 70
     6
  9
$SURFTYPE
 70
     6
  9
$SURFU
 70
     6
  9
$SURFV
 70
     6
  9
$UCSBASE
  2

  9
$UCSNAME
  2

  9
$UCSORG
 10
0.0
 20
0.0
 30
0.0
  9
$UCSXDIR
 10
1.0
 20
0.0
 30
0.0
  9
$UCSYDIR
 10
0.0
 20
1.0
 30
0.0
  9
$UCSORTHOREF
  2

  9
$UCSORTHOVIEW
 70
     0
  9
$UCSORGTOP
 10
0.0
 20
0.0
 30
0.0
  9
$UCSORGBOTTOM
 10
0.0
 20
0.0
 30
0.0
  9
$UCSORGLEFT
 10
0.0
 20
0.0
 30
0.0
  9
$UCSORGRIGHT
 10
0.0
 20
0.0
 30
0.0
  9
$UCSORGFRONT
 10
0.0
 20
0.0
 30
0.0
  9
$UCSORGBACK
 10
0.0
 20
0.0
 30
0.0
  9
$PUCSBASE
  2

  9
$PUCSNAME
  2

  9
$PUCSORG
 10
0.0
 20
0.0
 30
0.0
  9
$PUCSXDIR
 10
1.0
 20
0.0
 30
0.0
  9
$PUCSYDIR
 10
0.0
 20
1.0
 30
0.0
  9
$PUCSORTHOREF
  2

  9
$PUCSORTHOVIEW
 70
     0
  9
$PUCSORGTOP
 10
0.0
 20
0.0
 30
0.0
  9
$PUCSORGBOTTOM
 10
0.0
 20
0.0
 30
0.0
  9
$PUCSORGLEFT
 10
0.0
 20
0.0
 30
0.0
  9
$PUCSORGRIGHT
 10
0.0
 20
0.0
 30
0.0
  9
$PUCSORGFRONT
 10
0.0
 20
0.0
 30
0.0
  9
$PUCSORGBACK
 10
0.0
 20
0.0
 30
0.0
  9
$USERI1
 70
     0
  9
$USERI2
 70
     0
  9
$USERI3
 70
     0
  9
$USERI4
 70
     0
  9
$USERI5
 70
     0
  9
$USERR1
 40
0.0
  9
$USERR2
 40
0.0
  9
$USERR3
 40
0.0
  9
$USERR4
 40
0.0
  9
$USERR5
 40
0.0
  9
$WORLDVIEW
 70
     1
  9
$SHADEDGE
 70
     3
  9
$SHADEDIF
 70
    70
  9
$TILEMODE
 70
     1
  9
$MAXACTVP
 70
    64
  9
$PINSBASE
 10
0.0
 20
0.0
 30
0.0
  9
$PLIMCHECK
 70
     0
  9
$PEXTMIN
 10
1.000000000000000E+20
 20
1.000000000000000E+20
 30
1.000000000000000E+20
  9
$PEXTMAX
 10
-1.000000000000000E+20
 20
-1.000000000000000E+20
 30
-1.000000000000000E+20
  9
$PLIMMIN
 10
0.0
 20
0.0
  9
$PLIMMAX
 10
12.0
 20
9.0
  9
$UNITMODE
 70
     0
  9
$VISRETAIN
 70
     1
  9
$PLINEGEN
 70
     0
  9
$PSLTSCALE
 70
     1
  9
$TREEDEPTH
 70
  3020
  9
$CMLSTYLE
  2
Standard
  9
$CMLJUST
 70
     0
  9
$CMLSCALE
 40
1.0
  9
$PROXYGRAPHICS
 70
     1
  9
$MEASUREMENT
 70
     0
  9
$CELWEIGHT
370
    -1
  9
$ENDCAPS
280
     0
  9
$JOINSTYLE
280
     0
  9
$LWDISPLAY
290
     0
  9
$INSUNITS
 70
     1
  9
$HYPERLINKBASE
  1

  9
$STYLESHEET
  1

  9
$XEDIT
290
     1
  9
$CEPSNTYPE
380
     0
  9
$PSTYLEMODE
290
     1
  9
$FINGERPRINTGUID
  2
{2D4C2987-ED8D-4794-AD8E-DFFD8DE46969}
  9
$VERSIONGUID
  2
{70E22A48-A276-4156-8748-8E14B6A4CC45}
  9
$EXTNAMES
290
     1
  9
$PSVPSCALE
 40
0.0
  9
$OLESTARTUP
290
     0
  0
ENDSEC
  0
SECTION
  2
CLASSES
  0
CLASS
  1
ACDBDICTIONARYWDFLT
  2
AcDbDictionaryWithDefault
  3
ObjectDBX Classes
 90
        0
280
     0
281
     0
  0
CLASS
  1
MATERIAL
  2
AcDbMaterial
  3
ObjectDBX Classes
 90
     1153
280
     0
281
     0
  0
CLASS
  1
VISUALSTYLE
  2
AcDbVisualStyle
  3
ObjectDBX Classes
 90
     4095
280
     0
281
     0
  0
CLASS
  1
SCALE
  2
AcDbScale
  3
ObjectDBX Classes
 90
     1153
280
     0
281
     0
  0
CLASS
  1
TABLESTYLE
  2
AcDbTableStyle
  3
ObjectDBX Classes
 90
     4095
280
     0
281
     0
  0
CLASS
  1
MLEADERSTYLE
  2
AcDbMLeaderStyle
  3
ACDB_MLEADERSTYLE_CLASS
 90
     4095
280
     0
281
     0
  0
CLASS
  1
EXACXREFPANELOBJECT
  2
ExAcXREFPanelObject
  3
EXAC_ESW
 90
    33793
280
     0
281
     0
  0
CLASS
  1
NPOCOLLECTION
  2
AcDbImpNonPersistentObjectsCollection
  3
ObjectDBX Classes
 90
    33921
280
     0
281
     0
  0
CLASS
  1
SORTENTSTABLE
  2
AcDbSortentsTable
  3
ObjectDBX Classes
 90
        0
280
     0
281
     0
  0
CLASS
  1
DIMASSOC
  2
AcDbDimAssoc
  3
"AcDbDimAssoc|Product Desc:     AcDim ARX App For Dimension|Company:          Autodesk, Inc.|WEB Address:      www.autodesk.com"
 90
    32768
280
     0
281
     0
  0
CLASS
  1
CELLSTYLEMAP
  2
AcDbCellStyleMap
  3
ObjectDBX Classes
 90
     1152
280
     0
281
     0
  0
CLASS
  1
DICTIONARYVAR
  2
AcDbDictionaryVar
  3
ObjectDBX Classes
 90
        0
280
     0
281
     0
  0
CLASS
  1
ACDBPLACEHOLDER
  2
AcDbPlaceHolder
  3
ObjectDBX Classes
 90
        0
280
     0
281
     0
  0
CLASS
  1
LAYOUT
  2
AcDbLayout
  3
ObjectDBX Classes
 90
        0
280
     0
281
     0
  0
ENDSEC
  0
SECTION
  2
TABLES
  0
TABLE
  2
VPORT
  5
8
102
{ACAD_XDICTIONARY
360
4A4
102
}
330
0
100
AcDbSymbolTable
 70
     1
  0
VPORT
  5
57
330
8
100
AcDbSymbolTableRecord
100
AcDbViewportTableRecord
  2
*Active
 70
     0
 10
0.0
 20
0.0
 11
1.0
 21
1.0
 12
1236.70425644589
 22
732.8316980274729
 13
0.0
 23
0.0
 14
0.5
 24
0.5
 15
0.5
 25
0.5
 16
0.0
 26
0.0
 36
1.0
 17
0.0
 27
0.0
 37
0.0
 40
1604.553738397121
 41
1.658741258741258
 42
50.0
 43
0.0
 44
0.0
 50
0.0
 51
0.0
 71
     0
 72
  1000
 73
     1
 74
     3
 75
     0
 76
     0
 77
     0
 78
     0
281
     0
 65
     1
110
0.0
120
0.0
130
0.0
111
1.0
121
0.0
131
0.0
112
0.0
122
1.0
132
0.0
 79
     0
146
0.0
  0
ENDTAB
  0
TABLE
  2
LTYPE
  5
5
330
0
100
AcDbSymbolTable
 70
     2
  0
LTYPE
  5
5B
330
5
100
AcDbSymbolTableRecord
100
AcDbLinetypeTableRecord
  2
ByBlock
 70
     0
  3

 72
    65
 73
     0
 40
0.0
  0
LTYPE
  5
5C
330
5
100
AcDbSymbolTableRecord
100
AcDbLinetypeTableRecord
  2
ByLayer
 70
     0
  3

 72
    65
 73
     0
 40
0.0
  0
LTYPE
  5
5D
330
5
100
AcDbSymbolTableRecord
100
AcDbLinetypeTableRecord
  2
Continuous
 70
     0
  3
Solid line
 72
    65
 73
     0
 40
0.0
  0
LTYPE
  5
13A
330
5
100
AcDbSymbolTableRecord
100
AcDbLinetypeTableRecord
  2
CENTER2
 70
     0
  3
Center (.5x) ___ _ ___ _ ___ _ 
 72
    65
 73
     4
 40
1.125
 49
0.7500000000000001
 74
     0
 49
-0.125
 74
     0
 49
0.125
 74
     0
 49
-0.125
 74
     0
  0
ENDTAB
  0
TABLE
  2
LAYER
  5
2
102
{ACAD_XDICTIONARY
360
144
102
}
330
0
100
AcDbSymbolTable
 70
     3
  0
LAYER
  5
54
330
2
100
AcDbSymbolTableRecord
100
AcDbLayerTableRecord
  2
0
 70
     0
 62
     7
  6
Continuous
370
    -3
390
F
  0
LAYER
  5
13B
330
2
100
AcDbSymbolTableRecord
100
AcDbLayerTableRecord
  2
DEFPOINTS
 70
     0
 62
     5
  6
Continuous
290
     0
370
    -3
390
F
  0
LAYER
  5
298
102
{ACAD_XDICTIONARY
360
299
102
}
330
2
100
AcDbSymbolTableRecord
100
AcDbLayerTableRecord
  2
DRAW
 70
     0
 62
     5
  6
Continuous
370
    -3
390
F
  0
ENDTAB
  0
TABLE
  2
STYLE
  5
3
330
0
100
AcDbSymbolTable
 70
     2
  0
STYLE
  5
55
330
3
100
AcDbSymbolTableRecord
100
AcDbTextStyleTableRecord
  2
Standard
 70
     0
 40
0.0
 41
1.0
 50
0.0
 71
     0
 42
0.2
  3
txt
  4

  0
STYLE
  5
5A
330
3
100
AcDbSymbolTableRecord
100
AcDbTextStyleTableRecord
  2
Annotative
 70
     0
 40
0.0
 41
1.0
 50
0.0
 71
     0
 42
0.2
  3
txt
  4

1001
AcadAnnotative
1000
AnnotativeData
1002
{
1070
     1
1070
     1
1002
}
  0
ENDTAB
  0
TABLE
  2
VIEW
  5
6
330
0
100
AcDbSymbolTable
 70
     0
  0
ENDTAB
  0
TABLE
  2
UCS
  5
7
330
0
100
AcDbSymbolTable
 70
     0
  0
ENDTAB
  0
TABLE
  2
APPID
  5
9
330
0
100
AcDbSymbolTable
 70
     7
  0
APPID
  5
56
330
9
100
AcDbSymbolTableRecord
100
AcDbRegAppTableRecord
  2
ACAD
 70
     0
  0
APPID
  5
5E
330
9
100
AcDbSymbolTableRecord
100
AcDbRegAppTableRecord
  2
AcadAnnotative
 70
     0
  0
APPID
  5
142
330
9
100
AcDbSymbolTableRecord
100
AcDbRegAppTableRecord
  2
ACAD_PSEXT
 70
     0
  0
APPID
  5
143
330
9
100
AcDbSymbolTableRecord
100
AcDbRegAppTableRecord
  2
ACAD_DSTYLE_DIMJOGGED_JOGANGLE_SYMBOL
 70
     0
  0
APPID
  5
4DA
330
9
100
AcDbSymbolTableRecord
100
AcDbRegAppTableRecord
  2
ACAD_MLEADERVER
 70
     0
  0
APPID
  5
4E1
330
9
100
AcDbSymbolTableRecord
100
AcDbRegAppTableRecord
  2
ACAD_DSTYLE_DIMEXT_LENGTH
 70
     0
  0
APPID
  5
4F5
330
9
100
AcDbSymbolTableRecord
100
AcDbRegAppTableRecord
  2
ACAD_EXEMPT_FROM_CAD_STANDARDS
 70
     0
  0
ENDTAB
  0
TABLE
  2
DIMSTYLE
  5
A
330
0
100
AcDbSymbolTable
 70
     8
100
AcDbDimStyleTable
 71
     0
  0
DIMSTYLE
105
58
330
A
100
AcDbSymbolTableRecord
100
AcDbDimStyleTableRecord
  2
Standard
 70
     0
340
55
  0
DIMSTYLE
105
59
330
A
100
AcDbSymbolTableRecord
100
AcDbDimStyleTableRecord
  2
Annotative
 70
     0
340
55
1001
AcadAnnotative
1000
AnnotativeData
1002
{
1070
     1
1070
     1
1002
}
  0
DIMSTYLE
105
13C
330
A
100
AcDbSymbolTableRecord
100
AcDbDimStyleTableRecord
  2
B11
 70
     0
 40
7.62
 41
2.0
 42
0.8
 43
0.7
 44
1.5
 45
0.00001
 47
0.3
 71
     1
 73
     0
 74
     0
 77
     1
 78
     1
140
1.9
141
0.0
144
0.2
146
0.7
147
0.6
179
     1
271
     1
272
     1
284
    10
340
55
  0
DIMSTYLE
105
13D
330
A
100
AcDbSymbolTableRecord
100
AcDbDimStyleTableRecord
  2
15
 70
     0
 41
5.0
 42
1.0
 43
1.0
 44
1.0
 47
1.0
 48
1.000000000999997
 71
     1
 73
     0
 74
     0
 77
     1
 78
     8
 79
     2
140
15.0
141
0.0
143
0.03937007874016
147
1.0
171
     3
179
     2
271
     0
272
     0
274
     3
284
     8
340
55
371
     9
372
     9
1001
ACAD_DSTYLE_DIMEXT_LENGTH
1070
   378
1040
1.25
1001
ACAD_DSTYLE_DIMJOGGED_JOGANGLE_SYMBOL
1070
   384
1040
1.570796326794896
  0
DIMSTYLE
105
13E
330
A
100
AcDbSymbolTableRecord
100
AcDbDimStyleTableRecord
  2
BX4
 70
     0
 40
7.62
 41
2.0
 42
0.8
 43
0.7
 44
1.5
 73
     0
 74
     0
 77
     1
140
1.9
141
0.1
144
0.25
147
0.6
271
     1
272
     1
289
     2
340
55
  0
DIMSTYLE
105
13F
330
A
100
AcDbSymbolTableRecord
100
AcDbDimStyleTableRecord
  2
C
 70
     0
  3
%%c<>
 40
7.62
 41
1.5
 42
0.3125
 43
0.7
 44
1.0
 73
     0
 74
     0
 77
     1
140
1.3
141
0.045
147
0.3
271
     1
289
     2
340
55
  0
DIMSTYLE
105
140
330
A
100
AcDbSymbolTableRecord
100
AcDbDimStyleTableRecord
  2
D
 70
     0
  3
%%c<>
 40
7.62
 41
2.0
 42
0.6
 43
0.7
 44
1.5
 73
     0
 74
     0
 77
     1
140
1.9
141
0.1
147
0.6
271
     0
289
     2
340
55
  0
DIMSTYLE
105
141
330
A
100
AcDbSymbolTableRecord
100
AcDbDimStyleTableRecord
  2
b44
 70
     0
  3
"
  4
"
 40
10.0
 41
1.0
 42
0.3125
 43
0.7
 44
1.0
 47
1.0
 48
1.0
 77
     1
140
2.0
141
0.045
143
0.03937
144
0.03937
146
0.8
147
0.8
271
     3
272
     3
273
     5
277
     5
340
55
1001
ACAD_DSTYLE_DIMJOGGED_JOGANGLE_SYMBOL
1070
   384
1040
0.7853981633974483
  0
ENDTAB
  0
TABLE
  2
BLOCK_RECORD
  5
1
330
0
100
AcDbSymbolTable
 70
     9
  0
BLOCK_RECORD
  5
6C
330
1
100
AcDbSymbolTableRecord
100
AcDbBlockTableRecord
  2
*Model_Space
340
6F
  0
BLOCK_RECORD
  5
68
330
1
100
AcDbSymbolTableRecord
100
AcDbBlockTableRecord
  2
*Paper_Space
340
6B
  0
BLOCK_RECORD
  5
70
330
1
100
AcDbSymbolTableRecord
100
AcDbBlockTableRecord
  2
*Paper_Space0
340
73
  0
BLOCK_RECORD
  5
78
102
{ACAD_XDICTIONARY
360
79
102
}
330
1
100
AcDbSymbolTableRecord
100
AcDbBlockTableRecord
  2
A$C7B7D6155
340
0
102
{BLKREFS
331
E1
102
}
  0
BLOCK_RECORD
  5
DD
102
{ACAD_XDICTIONARY
360
DE
102
}
330
1
100
AcDbSymbolTableRecord
100
AcDbBlockTableRecord
  2
A$C40C2364E
340
0
102
{BLKREFS
331
437
102
}
  0
BLOCK_RECORD
  5
EF
102
{ACAD_XDICTIONARY
360
F0
102
}
330
1
100
AcDbSymbolTableRecord
100
AcDbBlockTableRecord
  2
A$C050E5E0D
340
0
  0
BLOCK_RECORD
  5
23D
102
{ACAD_XDICTIONARY
360
23E
102
}
330
1
100
AcDbSymbolTableRecord
100
AcDbBlockTableRecord
  2
A$C1D634BA3
340
0
102
{BLKREFS
331
436
102
}
  0
BLOCK_RECORD
  5
44F
330
1
100
AcDbSymbolTableRecord
100
AcDbBlockTableRecord
  2
*D5
340
0
  0
BLOCK_RECORD
  5
45C
330
1
100
AcDbSymbolTableRecord
100
AcDbBlockTableRecord
  2
*D6
340
0
  0
BLOCK_RECORD
  5
468
330
1
100
AcDbSymbolTableRecord
100
AcDbBlockTableRecord
  2
*D7
340
0
  0
BLOCK_RECORD
  5
475
330
1
100
AcDbSymbolTableRecord
100
AcDbBlockTableRecord
  2
*D8
340
0
  0
ENDTAB
  0
ENDSEC
  0
SECTION
  2
BLOCKS
  0
BLOCK
  5
6D
330
6C
100
AcDbEntity
  8
0
100
AcDbBlockBegin
  2
*Model_Space
 70
     0
 10
0.0
 20
0.0
 30
0.0
  3
*Model_Space
  1

  0
ENDBLK
  5
6E
330
6C
100
AcDbEntity
  8
0
100
AcDbBlockEnd
  0
BLOCK
  5
69
330
68
100
AcDbEntity
 67
     1
  8
0
100
AcDbBlockBegin
  2
*Paper_Space
 70
     0
 10
0.0
 20
0.0
 30
0.0
  3
*Paper_Space
  1

  0
ENDBLK
  5
6A
330
68
100
AcDbEntity
 67
     1
  8
0
100
AcDbBlockEnd
  0
BLOCK
  5
71
330
70
100
AcDbEntity
 67
     1
  8
0
100
AcDbBlockBegin
  2
*Paper_Space0
 70
     0
 10
0.0
 20
0.0
 30
0.0
  3
*Paper_Space0
  1

  0
ENDBLK
  5
72
330
70
100
AcDbEntity
 67
     1
  8
0
100
AcDbBlockEnd
  0
BLOCK
  5
7B
330
78
100
AcDbEntity
  8
0
 62
     7
100
AcDbBlockBegin
  2
A$C7B7D6155
 70
     0
 10
0.0
 20
0.0
 30
0.0
  3
A$C7B7D6155
  1

  0
LINE
  5
7C
330
78
100
AcDbEntity
  8
0
 62
     7
100
AcDbLine
 10
128.4718868992113
 20
-68.11360423731184
 30
0.0
 11
128.4718868992113
 21
-2.147667535574328
 31
0.0
  0
LINE
  5
7D
330
78
100
AcDbEntity
  8
0
 62
     7
100
AcDbLine
 10
131.4718868992112
 20
-68.11360423731184
 30
0.0
 11
131.4718868992112
 21
-2.147667535574328
 31
0.0
  0
ARC
  5
7E
330
78
100
AcDbEntity
  8
0
 62
     7
100
AcDbCircle
 10
123.4718868992113
 20
-2.147667535574328
 30
0.0
 40
5.0
100
AcDbArc
 50
0.0
 51
90.0
  0
ARC
  5
7F
330
78
100
AcDbEntity
  8
0
 62
     7
100
AcDbCircle
 10
123.4718868992113
 20
-2.147667535574328
 30
0.0
 40
8.0
100
AcDbArc
 50
0.0
 51
90.0
  0
LINE
  5
80
330
78
100
AcDbEntity
  8
0
 62
     7
100
AcDbLine
 10
87.64094014464172
 20
2.85233246442567
 30
0.0
 11
123.4718868992113
 21
2.85233246442567
 31
0.0
  0
LINE
  5
81
330
78
100
AcDbEntity
  8
0
 62
     7
100
AcDbLine
 10
87.64094014464172
 20
5.85233246442567
 30
0.0
 11
123.4718868992113
 21
5.85233246442567
 31
0.0
  0
LINE
  5
82
330
78
100
AcDbEntity
  8
0
 62
     7
100
AcDbLine
 10
87.64094014464172
 20
5.852332464425217
 30
0.0
 11
87.64094014464172
 21
2.852332464426126
 31
0.0
  0
LINE
  5
83
330
78
100
AcDbEntity
  8
0
 62
     7
100
AcDbLine
 10
103.2000983335801
 20
2.85233246442567
 30
0.0
 11
99.71272570963629
 21
-4.73587245071303
 31
0.0
  0
LINE
  5
84
330
78
100
AcDbEntity
  8
0
 62
     7
100
AcDbLine
 10
107.7432780870676
 20
0.7643866491562222
 30
0.0
 11
102.8713857624138
 21
-9.836406919660475
 31
0.0
  0
LINE
  5
85
330
78
100
AcDbEntity
  8
0
 62
     7
100
AcDbLine
 10
103.2000983335801
 20
2.85233246442567
 30
0.0
 11
107.7432780870676
 21
0.7643866491562222
 31
0.0
  0
LINE
  5
86
330
78
100
AcDbEntity
  8
0
 62
     7
100
AcDbLine
 10
99.71272570963629
 20
-4.73587245071303
 30
0.0
 11
-44.41119242720924
 21
-0.2587198794690266
 31
0.0
  0
LINE
  5
87
330
78
100
AcDbEntity
  8
0
 62
     7
100
AcDbLine
 10
102.8713857624143
 20
-9.836406919659566
 30
0.0
 11
-47.54512995551134
 21
-5.163777290865255
 31
0.0
  0
LINE
  5
88
330
78
100
AcDbEntity
  8
0
 62
     7
100
AcDbLine
 10
40.73524613372422
 20
-10.4073782643045
 30
0.0
 11
11.56976904596286
 21
-9.50136424232096
 31
0.0
  0
LINE
  5
89
330
78
100
AcDbEntity
  8
0
 62
     7
100
AcDbLine
 10
-48.78536196946583
 20
8.465384084479865
 30
0.0
 11
-44.41119242720924
 21
-0.2587198794690266
 31
0.0
  0
LINE
  5
8A
330
78
100
AcDbEntity
  8
0
 62
     7
100
AcDbLine
 10
-53.25501187423788
 20
6.22435090115232
 30
0.0
 11
-47.54512995551112
 21
-5.163777290866163
 31
0.0
  0
LINE
  5
8B
330
78
100
AcDbEntity
  8
0
 62
     7
100
AcDbLine
 10
-48.78536196946561
 20
8.46538408447941
 30
0.0
 11
-53.25501187423765
 21
6.22435090115232
 31
0.0
  0
LINE
  5
8C
330
78
100
AcDbEntity
  8
0
 62
     7
100
AcDbLine
 10
89.72182722245451
 20
8.474980035319275
 30
0.0
 11
89.72182722245451
 21
5.85233246442567
 31
0.0
  0
LINE
  5
8D
330
78
100
AcDbEntity
  8
0
 62
     7
100
AcDbLine
 10
114.2486019822081
 20
5.85233246442567
 30
0.0
 11
114.2486019822081
 21
8.46538408447941
 31
0.0
  0
LINE
  5
8E
330
78
100
AcDbEntity
  8
0
 62
     7
100
AcDbLine
 10
114.2486019822081
 20
8.46538408447941
 30
0.0
 11
34.94893704653623
 21
8.46538408447941
 31
0.0
  0
LINE
  5
8F
330
78
100
AcDbEntity
  8
0
 62
     7
100
AcDbLine
 10
17.71197862285589
 20
8.46538408447941
 30
0.0
 11
-77.11930290466444
 21
8.46538408447941
 31
0.0
  0
SPLINE
  5
90
330
78
100
AcDbEntity
  8
0
 62
     7
100
AcDbSpline
210
0.0
220
0.0
230
1.0
 70
    40
 71
     3
 72
    12
 73
     8
 74
     6
 42
0.0000000001
 43
0.0000000001
 44
0.0000000001
 40
0.0
 40
0.0
 40
0.0
 40
0.0
 40
5.044115551326623
 40
15.43448588604933
 40
27.56618128587151
 40
37.38365067103354
 40
47.20720531347018
 40
47.20720531347018
 40
47.20720531347018
 40
47.20720531347018
 10
-87.03539645197635
 20
53.55187860205024
 30
0.0
 10
-85.95676606030158
 20
52.22204985064099
 30
0.0
 10
-82.65626562823094
 20
48.15290772143455
 30
0.0
 10
-82.73080916537914
 20
38.33757821958347
 30
0.0
 10
-83.58141129937944
 20
27.80693564437918
 30
0.0
 10
-81.94255937792419
 20
17.0898280451415
 30
0.0
 10
-78.72738710807912
 20
11.34079246743916
 30
0.0
 10
-77.11930290466444
 20
8.46538408447941
 30
0.0
 11
-87.03539645197635
 21
53.55187860205024
 31
0.0
 11
-84.15646816839034
 21
49.4100343711425
 31
0.0
 11
-82.8392179741877
 21
39.10350015160203
 31
0.0
 11
-83.12004552126927
 21
26.97505552078201
 31
0.0
 11
-81.39269459757088
 21
17.31074158160391
 31
0.0
 11
-77.11930290466444
 21
8.46538408447941
 31
0.0
  0
LINE
  5
91
330
78
100
AcDbEntity
  8
0
 62
     7
100
AcDbLine
 10
-87.03539645197635
 20
53.55187860205024
 30
0.0
 11
104.2889160709655
 21
53.55187860205115
 31
0.0
  0
LINE
  5
92
330
78
100
AcDbEntity
  8
0
 62
     7
100
AcDbLine
 10
112.2889160709656
 20
8.46538408447941
 30
0.0
 11
112.2889160709656
 21
45.55187860205115
 31
0.0
  0
ARC
  5
93
330
78
100
AcDbEntity
  8
0
 62
     7
100
AcDbCircle
 10
104.2889160709655
 20
45.55187860205115
 30
0.0
 40
8.0
100
AcDbArc
 50
0.0
 51
90.0
  0
LINE
  5
94
330
78
100
AcDbEntity
  8
0
 62
     7
100
AcDbLine
 10
11.64739311321614
 20
-7.00256963207812
 30
0.0
 11
11.56976904596286
 21
-9.501364242321866
 31
0.0
  0
LINE
  5
95
330
78
100
AcDbEntity
  8
0
 62
     7
100
AcDbLine
 10
40.81287020097761
 20
-7.908583654059839
 30
0.0
 11
40.73524613372422
 21
-10.4073782643045
 31
0.0
  0
ARC
  5
96
330
78
100
AcDbEntity
  8
0
 62
     7
100
AcDbCircle
 10
26.42199485585297
 20
-5.51385001201379
 30
0.0
 40
8.179301531451695
100
AcDbArc
 50
211.153746727349
 51
325.2876561675968
  0
LINE
  5
97
330
78
100
AcDbEntity
  8
0
 62
     7
100
AcDbLine
 10
17.71197862285589
 20
28.88089830073204
 30
0.0
 11
17.71197862285589
 21
6.689440853816449
 31
0.0
  0
LINE
  5
98
330
78
100
AcDbEntity
  8
0
 62
     7
100
AcDbLine
 10
17.71197862285589
 20
6.689440853816449
 30
0.0
 11
26.16368152255564
 21
6.689440853816449
 31
0.0
  0
LINE
  5
99
330
78
100
AcDbEntity
  8
0
 62
     7
100
AcDbLine
 10
26.16368152255564
 20
28.88089830073204
 30
0.0
 11
17.71197862285589
 21
28.88089830073204
 31
0.0
  0
LINE
  5
9A
330
78
100
AcDbEntity
  8
0
 62
     7
100
AcDbLine
 10
26.16368152255564
 20
35.89529685575236
 30
0.0
 11
26.16368152255564
 21
-17.20336579651575
 31
0.0
  0
LINE
  5
9B
330
78
100
AcDbEntity
  8
0
 62
     7
100
AcDbLine
 10
24.17911445389291
 20
28.88089830073204
 30
0.0
 11
24.17911445389291
 21
26.5191029505977
 31
0.0
  0
LINE
  5
9C
330
78
100
AcDbEntity
  8
0
 62
     7
100
AcDbLine
 10
24.17911445389291
 20
26.5191029505977
 30
0.0
 11
22.77204418837027
 21
26.5191029505977
 31
0.0
  0
LINE
  5
9D
330
78
100
AcDbEntity
  8
0
 62
     7
100
AcDbLine
 10
22.77204418837027
 20
26.5191029505977
 30
0.0
 11
22.77204418837027
 21
20.1178148116478
 31
0.0
  0
LINE
  5
9E
330
78
100
AcDbEntity
  8
0
 62
     7
100
AcDbLine
 10
22.77204418837027
 20
20.1178148116478
 30
0.0
 11
20.18023176383394
 21
20.1178148116478
 31
0.0
  0
LINE
  5
9F
330
78
100
AcDbEntity
  8
0
 62
     7
100
AcDbLine
 10
20.18023176383394
 20
20.1178148116478
 30
0.0
 11
20.18023176383394
 21
6.689440853816449
 31
0.0
  0
LINE
  5
A0
330
78
100
AcDbEntity
  8
0
 62
     7
100
AcDbLine
 10
20.18023176383394
 20
18.26890371318859
 30
0.0
 11
17.71197862285589
 21
18.26890371318859
 31
0.0
  0
LINE
  5
A1
330
78
100
AcDbEntity
  8
0
 62
     7
100
AcDbLine
 10
20.18023176383394
 20
15.03283029837075
 30
0.0
 11
17.71197862285589
 21
15.03283029837075
 31
0.0
  0
LINE
  5
A2
330
78
100
AcDbEntity
  8
0
 62
     7
100
AcDbLine
 10
20.18023176383394
 20
12.55911975647814
 30
0.0
 11
17.71197862285589
 21
12.55911975647814
 31
0.0
  0
LINE
  5
A3
330
78
100
AcDbEntity
  8
0
 62
     7
100
AcDbLine
 10
20.18023176383394
 20
10.21794926041457
 30
0.0
 11
17.71197862285589
 21
10.21794926041457
 31
0.0
  0
LINE
  5
A4
330
78
100
AcDbEntity
  8
0
 62
     7
100
AcDbLine
 10
22.77204418837027
 20
20.1178148116478
 30
0.0
 11
23.65180321734624
 21
19.54555158900166
 31
0.0
  0
LINE
  5
A5
330
78
100
AcDbEntity
  8
0
 62
     7
100
AcDbLine
 10
23.65180321734624
 20
19.54555158900166
 30
0.0
 11
21.65180321734624
 21
18.2286844427208
 31
0.0
  0
LINE
  5
A6
330
78
100
AcDbEntity
  8
0
 62
     7
100
AcDbLine
 10
21.65180321734624
 20
18.2286844427208
 30
0.0
 11
23.65180321734624
 21
17.26522521746847
 31
0.0
  0
LINE
  5
A7
330
78
100
AcDbEntity
  8
0
 62
     7
100
AcDbLine
 10
23.65180321734624
 20
14.98489884593527
 30
0.0
 11
21.65180321734624
 21
16.30176599221613
 31
0.0
  0
LINE
  5
A8
330
78
100
AcDbEntity
  8
0
 62
     7
100
AcDbLine
 10
21.65180321734624
 20
16.30176599221613
 30
0.0
 11
23.65180321734624
 21
17.26522521746847
 31
0.0
  0
LINE
  5
A9
330
78
100
AcDbEntity
  8
0
 62
     7
100
AcDbLine
 10
23.65180321734624
 20
10.42424610286889
 30
0.0
 11
21.65180321734624
 21
11.74111324914975
 31
0.0
  0
LINE
  5
AA
330
78
100
AcDbEntity
  8
0
 62
     7
100
AcDbLine
 10
21.65180321734624
 20
11.74111324914975
 30
0.0
 11
23.65180321734624
 21
12.70457247440208
 31
0.0
  0
LINE
  5
AB
330
78
100
AcDbEntity
  8
0
 62
     7
100
AcDbLine
 10
23.65180321734624
 20
14.98489884593527
 30
0.0
 11
21.65180321734624
 21
13.66803169965442
 31
0.0
  0
LINE
  5
AC
330
78
100
AcDbEntity
  8
0
 62
     7
100
AcDbLine
 10
21.65180321734624
 20
13.66803169965442
 30
0.0
 11
23.65180321734624
 21
12.70457247440208
 31
0.0
  0
LINE
  5
AD
330
78
100
AcDbEntity
  8
0
 62
     7
100
AcDbLine
 10
23.65180321734624
 20
10.42424610286889
 30
0.0
 11
21.65180321734624
 21
9.107378956588037
 31
0.0
  0
LINE
  5
AE
330
78
100
AcDbEntity
  8
0
 62
     7
100
AcDbLine
 10
21.65180321734624
 20
9.107378956588037
 30
0.0
 11
23.65180321734624
 21
8.143919731335699
 31
0.0
  0
LINE
  5
AF
330
78
100
AcDbEntity
  8
0
 62
     7
100
AcDbLine
 10
34.61538442225537
 20
28.88089830073204
 30
0.0
 11
34.61538442225537
 21
6.689440853816449
 31
0.0
  0
LINE
  5
B0
330
78
100
AcDbEntity
  8
0
 62
     7
100
AcDbLine
 10
34.61538442225537
 20
6.689440853816449
 30
0.0
 11
26.16368152255564
 21
6.689440853816449
 31
0.0
  0
LINE
  5
B1
330
78
100
AcDbEntity
  8
0
 62
     7
100
AcDbLine
 10
26.16368152255564
 20
28.88089830073204
 30
0.0
 11
34.61538442225537
 21
28.88089830073204
 31
0.0
  0
LINE
  5
B2
330
78
100
AcDbEntity
  8
0
 62
     7
100
AcDbLine
 10
28.14824859121836
 20
28.88089830073204
 30
0.0
 11
28.14824859121836
 21
26.5191029505977
 31
0.0
  0
LINE
  5
B3
330
78
100
AcDbEntity
  8
0
 62
     7
100
AcDbLine
 10
28.14824859121836
 20
26.5191029505977
 30
0.0
 11
29.555318856741
 21
26.5191029505977
 31
0.0
  0
LINE
  5
B4
330
78
100
AcDbEntity
  8
0
 62
     7
100
AcDbLine
 10
29.555318856741
 20
26.5191029505977
 30
0.0
 11
29.555318856741
 21
20.1178148116478
 31
0.0
  0
LINE
  5
B5
330
78
100
AcDbEntity
  8
0
 62
     7
100
AcDbLine
 10
29.555318856741
 20
20.1178148116478
 30
0.0
 11
32.14713128127733
 21
20.1178148116478
 31
0.0
  0
LINE
  5
B6
330
78
100
AcDbEntity
  8
0
 62
     7
100
AcDbLine
 10
32.14713128127733
 20
20.1178148116478
 30
0.0
 11
32.14713128127733
 21
6.689440853816449
 31
0.0
  0
LINE
  5
B7
330
78
100
AcDbEntity
  8
0
 62
     7
100
AcDbLine
 10
32.14713128127733
 20
18.26890371318859
 30
0.0
 11
34.61538442225537
 21
18.26890371318859
 31
0.0
  0
LINE
  5
B8
330
78
100
AcDbEntity
  8
0
 62
     7
100
AcDbLine
 10
32.14713128127733
 20
15.03283029837075
 30
0.0
 11
34.61538442225537
 21
15.03283029837075
 31
0.0
  0
LINE
  5
B9
330
78
100
AcDbEntity
  8
0
 62
     7
100
AcDbLine
 10
32.14713128127733
 20
12.55911975647814
 30
0.0
 11
34.61538442225537
 21
12.55911975647814
 31
0.0
  0
LINE
  5
BA
330
78
100
AcDbEntity
  8
0
 62
     7
100
AcDbLine
 10
32.14713128127733
 20
10.21794926041457
 30
0.0
 11
34.61538442225537
 21
10.21794926041457
 31
0.0
  0
LINE
  5
BB
330
78
100
AcDbEntity
  8
0
 62
     7
100
AcDbLine
 10
29.555318856741
 20
20.1178148116478
 30
0.0
 11
28.67555982776503
 21
19.54555158900166
 31
0.0
  0
LINE
  5
BC
330
78
100
AcDbEntity
  8
0
 62
     7
100
AcDbLine
 10
28.67555982776503
 20
19.54555158900166
 30
0.0
 11
30.67555982776503
 21
18.2286844427208
 31
0.0
  0
LINE
  5
BD
330
78
100
AcDbEntity
  8
0
 62
     7
100
AcDbLine
 10
30.67555982776503
 20
18.2286844427208
 30
0.0
 11
28.67555982776503
 21
17.26522521746847
 31
0.0
  0
LINE
  5
BE
330
78
100
AcDbEntity
  8
0
 62
     7
100
AcDbLine
 10
28.67555982776503
 20
14.98489884593527
 30
0.0
 11
30.67555982776503
 21
16.30176599221613
 31
0.0
  0
LINE
  5
BF
330
78
100
AcDbEntity
  8
0
 62
     7
100
AcDbLine
 10
30.67555982776503
 20
16.30176599221613
 30
0.0
 11
28.67555982776503
 21
17.26522521746847
 31
0.0
  0
LINE
  5
C0
330
78
100
AcDbEntity
  8
0
 62
     7
100
AcDbLine
 10
28.67555982776503
 20
10.42424610286889
 30
0.0
 11
30.67555982776503
 21
11.74111324914975
 31
0.0
  0
LINE
  5
C1
330
78
100
AcDbEntity
  8
0
 62
     7
100
AcDbLine
 10
30.67555982776503
 20
11.74111324914975
 30
0.0
 11
28.67555982776503
 21
12.70457247440208
 31
0.0
  0
LINE
  5
C2
330
78
100
AcDbEntity
  8
0
 62
     7
100
AcDbLine
 10
28.67555982776503
 20
14.98489884593527
 30
0.0
 11
30.67555982776503
 21
13.66803169965442
 31
0.0
  0
LINE
  5
C3
330
78
100
AcDbEntity
  8
0
 62
     7
100
AcDbLine
 10
30.67555982776503
 20
13.66803169965442
 30
0.0
 11
28.67555982776503
 21
12.70457247440208
 31
0.0
  0
LINE
  5
C4
330
78
100
AcDbEntity
  8
0
 62
     7
100
AcDbLine
 10
28.67555982776503
 20
10.42424610286889
 30
0.0
 11
30.67555982776503
 21
9.107378956588037
 31
0.0
  0
LINE
  5
C5
330
78
100
AcDbEntity
  8
0
 62
     7
100
AcDbLine
 10
30.67555982776503
 20
9.107378956588037
 30
0.0
 11
28.67555982776503
 21
8.143919731335699
 31
0.0
  0
ARC
  5
C6
330
78
100
AcDbEntity
  8
0
 62
     7
100
AcDbCircle
 10
26.16368152255564
 20
19.19970613252917
 30
0.0
 40
5.750135146985215
100
AcDbArc
 50
53.85462122643402
 51
126.1453787735659
  0
LINE
  5
C7
330
78
100
AcDbEntity
  8
0
 62
     7
100
AcDbLine
 10
21.93783007270576
 20
28.88089830073204
 30
0.0
 11
17.71197862285589
 21
24.46719563034549
 31
0.0
  0
LINE
  5
C8
330
78
100
AcDbEntity
  8
0
 62
     7
100
AcDbLine
 10
22.77204418837027
 20
25.18756816805035
 30
0.0
 11
17.71197862285589
 21
20.6625138265108
 31
0.0
  0
LINE
  5
C9
330
78
100
AcDbEntity
  8
0
 62
     7
100
AcDbLine
 10
30.38953297240551
 20
28.88089830073204
 30
0.0
 11
34.61538442225537
 21
24.46719563034549
 31
0.0
  0
LINE
  5
CA
330
78
100
AcDbEntity
  8
0
 62
     7
100
AcDbLine
 10
29.555318856741
 20
25.18756816805035
 30
0.0
 11
34.61538442225537
 21
20.6625138265108
 31
0.0
  0
LINE
  5
CB
330
78
100
AcDbEntity
  8
0
 62
     7
100
AcDbLine
 10
23.65180321734624
 20
8.143919731335699
 30
0.0
 11
23.65180321734624
 21
6.196312024420876
 31
0.0
  0
LINE
  5
CC
330
78
100
AcDbEntity
  8
0
 62
     7
100
AcDbLine
 10
23.65180321734624
 20
6.196312024420876
 30
0.0
 11
22.36868525488354
 21
4.584610898650676
 31
0.0
  0
LINE
  5
CD
330
78
100
AcDbEntity
  8
0
 62
     7
100
AcDbLine
 10
22.36868525488354
 20
4.584610898650676
 30
0.0
 11
23.66676819052191
 21
3.262784771063707
 31
0.0
  0
LINE
  5
CE
330
78
100
AcDbEntity
  8
0
 62
     7
100
AcDbLine
 10
23.66676819052191
 20
3.262784771063707
 30
0.0
 11
22.3936268768357
 21
2.240236385440766
 31
0.0
  0
LINE
  5
CF
330
78
100
AcDbEntity
  8
0
 62
     7
100
AcDbLine
 10
22.3936268768357
 20
2.240236385440766
 30
0.0
 11
23.71668166669952
 21
0.6939519513825873
 31
0.0
  0
LINE
  5
D0
330
78
100
AcDbEntity
  8
0
 62
     7
100
AcDbLine
 10
23.71668166669952
 20
0.6939519513825873
 30
0.0
 11
22.33137863489355
 21
-0.3292243571968356
 31
0.0
  0
LINE
  5
D1
330
78
100
AcDbEntity
  8
0
 62
     7
100
AcDbLine
 10
22.33137863489355
 20
-0.3292243571968356
 30
0.0
 11
22.33137863489355
 21
-8.504588058528497
 31
0.0
  0
LINE
  5
D2
330
78
100
AcDbEntity
  8
0
 62
     7
100
AcDbLine
 10
28.67555982776503
 20
8.143919731335699
 30
0.0
 11
28.67555982776503
 21
6.196312024420876
 31
0.0
  0
LINE
  5
D3
330
78
100
AcDbEntity
  8
0
 62
     7
100
AcDbLine
 10
28.67555982776503
 20
6.196312024420876
 30
0.0
 11
29.95867779022774
 21
4.584610898650676
 31
0.0
  0
LINE
  5
D4
330
78
100
AcDbEntity
  8
0
 62
     7
100
AcDbLine
 10
29.95867779022774
 20
4.584610898650676
 30
0.0
 11
28.66059485458936
 21
3.262784771063707
 31
0.0
  0
LINE
  5
D5
330
78
100
AcDbEntity
  8
0
 62
     7
100
AcDbLine
 10
28.66059485458936
 20
3.262784771063707
 30
0.0
 11
29.93373616827557
 21
2.240236385440766
 31
0.0
  0
LINE
  5
D6
330
78
100
AcDbEntity
  8
0
 62
     7
100
AcDbLine
 10
29.93373616827557
 20
2.240236385440766
 30
0.0
 11
28.61068137841176
 21
0.6939519513825873
 31
0.0
  0
LINE
  5
D7
330
78
100
AcDbEntity
  8
0
 62
     7
100
AcDbLine
 10
28.61068137841176
 20
0.6939519513825873
 30
0.0
 11
29.99598441021772
 21
-0.3292243571968356
 31
0.0
  0
LINE
  5
D8
330
78
100
AcDbEntity
  8
0
 62
     7
100
AcDbLine
 10
29.99598441021772
 20
-0.3292243571968356
 30
0.0
 11
29.99598441021772
 21
-8.504588058528497
 31
0.0
  0
LINE
  5
D9
330
78
100
AcDbEntity
  8
0
 62
     7
100
AcDbLine
 10
29.99598441021772
 20
-8.504588058528497
 30
0.0
 11
22.33137863489355
 21
-8.504588058528497
 31
0.0
  0
LINE
  5
DA
330
78
100
AcDbEntity
  8
0
 62
     7
100
AcDbLine
 10
131.4718868992112
 20
-68.11360423731184
 30
0.0
 11
128.4718868992113
 21
-68.11360423731184
 31
0.0
  0
HATCH
  5
DB
330
78
100
AcDbEntity
  8
0
 62
     7
100
AcDbHatch
 10
0.0
 20
0.0
 30
0.0
210
0.0
220
0.0
230
1.0
  2
ANSI31
 70
     0
 71
     0
 91
        1
 92
        5
 93
       10
 72
     2
 10
104.2889160709655
 20
45.55187860205115
 40
8.0
 50
0.0
 51
90.0
 73
     1
 72
     1
 10
104.2889160709655
 20
53.55187860205115
 11
-87.03539645197681
 21
53.55187860205115
 72
     4
 94
        3
 73
     0
 74
     0
 95
       12
 96
        8
 40
0.0
 40
0.0
 40
0.0
 40
0.0
 40
5.044115551326623
 40
15.43448588604934
 40
27.56618128587152
 40
37.38365067103357
 40
47.20720531347018
 40
47.20720531347018
 40
47.20720531347018
 40
47.20720531347018
 10
-87.03539645197635
 20
53.55187860205024
 10
-85.95676606030158
 20
52.22204985064081
 10
-82.65626562823081
 20
48.15290772143454
 10
-82.73080916537924
 20
38.33757821958353
 10
-83.58141129937939
 20
27.80693564437934
 10
-81.94255937792423
 20
17.08982804514153
 10
-78.72738710807903
 20
11.34079246743931
 10
-77.11930290466444
 20
8.46538408447941
 72
     1
 10
-77.11930290466444
 20
8.46538408447941
 11
17.71197862285589
 21
8.46538408447941
 72
     1
 10
17.71197862285589
 20
8.46538408447941
 11
17.71197862285612
 21
28.8808983007325
 72
     1
 10
17.71197862285612
 20
28.8808983007325
 11
26.16368152255564
 21
28.88089830073204
 72
     1
 10
26.16368152255564
 20
28.88089830073204
 11
34.61538442225537
 21
28.88089830073204
 72
     1
 10
34.61538442225537
 20
28.88089830073204
 11
34.61538442225515
 21
8.46538408447941
 72
     1
 10
34.61538442225515
 20
8.46538408447941
 11
112.2889160709653
 21
8.465384084479865
 72
     1
 10
112.2889160709653
 20
8.465384084479865
 11
112.2889160709656
 21
45.55187860205115
 97
        0
 75
     0
 76
     1
 52
0.0
 41
25.0
 77
     0
 78
     1
 53
45.0
 43
-1354.086106484478
 44
-3682.020655043672
 45
-2.209708691207957
 46
2.209708691207957
 79
     0
 47
0.3407784301668528
 98
        1
 10
63.63743172773502
 20
39.00029729870766
1001
ACAD
1010
0.0
1020
0.0
1030
0.0
  0
ENDBLK
  5
DC
330
78
100
AcDbEntity
  8
0
 62
     7
100
AcDbBlockEnd
  0
BLOCK
  5
E0
330
DD
100
AcDbEntity
  8
0
 62
     7
100
AcDbBlockBegin
  2
A$C40C2364E
 70
     0
 10
0.0
 20
0.0
 30
0.0
  3
A$C40C2364E
  1

  0
INSERT
  5
E1
330
DD
100
AcDbEntity
  8
0
 62
     7
100
AcDbBlockReference
  2
A$C7B7D6155
 10
32.52107706848256
 20
-19.82535338705929
 30
0.0
 41
0.6500000000000911
 42
0.6500000000000911
 43
0.6500000000000911
  0
LINE
  5
E2
330
DD
100
AcDbEntity
  8
0
 62
     7
100
AcDbLine
 10
6.338922132137891
 20
14.98336770427386
 30
0.0
 11
-0.5668338735704312
 21
26.11045444281717
 31
0.0
  0
LINE
  5
E3
330
DD
100
AcDbEntity
  8
0
 62
     7
100
AcDbLine
 10
-0.5668338735704312
 20
26.11045444281717
 30
0.0
 11
-4.170457308955517
 21
26.11045444281717
 31
0.0
  0
MTEXT
  5
E4
330
DD
100
AcDbEntity
  8
0
 62
     7
100
AcDbMText
 10
-53.83781552087747
 20
29.9927615165243
 30
0.0
 40
5.0
 41
30.03556079984628
 71
     1
 72
     5
  1
{\fArial|b0|i0|c0|p34;COUNTERTOP}
 73
     1
 44
1.0
1001
ACAD
1000
MTEXTBEGIN
1070
    73
1070
     1
1070
    44
1040
1.0
1070
    74
1070
     0
1000
MTEXTEND
  0
LINE
  5
E5
330
DD
100
AcDbEntity
  8
0
 62
     7
100
AcDbLine
 10
17.26247024328222
 20
-23.66783697356254
 30
0.0
 11
-0.3725853457581252
 21
-36.31629570176574
 31
0.0
  0
LINE
  5
E6
330
DD
100
AcDbEntity
  8
0
 62
     7
100
AcDbLine
 10
-0.3725853457581252
 20
-36.31629570176574
 30
0.0
 11
-2.548959822626783
 21
-36.31629570176574
 31
0.0
  0
MTEXT
  5
E7
330
DD
100
AcDbEntity
  8
0
 62
     7
100
AcDbMText
 10
-39.41373040020699
 20
-33.13097170890888
 30
0.0
 40
5.0
 41
30.03556079984628
 71
     1
 72
     5
  1
{\fArial|b0|i0|c0|p34;FASTENER}
 73
     1
 44
1.0
1001
ACAD
1000
MTEXTBEGIN
1070
    73
1070
     1
1070
    44
1040
1.0
1070
    74
1070
     0
1000
MTEXTEND
  0
LINE
  5
E8
330
DD
100
AcDbEntity
  8
0
 62
     7
100
AcDbLine
 10
47.76329757453095
 20
-28.36240980849374
 30
0.0
 11
39.26546135457466
 21
-42.82151377184436
 31
0.0
  0
LINE
  5
E9
330
DD
100
AcDbEntity
  8
0
 62
     7
100
AcDbLine
 10
39.26546135457466
 20
-42.82151377184436
 30
0.0
 11
37.45967632953762
 21
-42.82151377184436
 31
0.0
  0
MTEXT
  5
EA
330
DD
100
AcDbEntity
  8
0
 62
     7
100
AcDbMText
 10
6.606316476056234
 20
-39.84446683050101
 30
0.0
 40
5.0
 41
30.03556079984628
 71
     1
 72
     5
  1
{\fArial|b0|i0|c0|p34;SCREWS}
 73
     1
 44
1.0
1001
ACAD
1000
MTEXTBEGIN
1070
    73
1070
     1
1070
    44
1040
1.0
1070
    74
1070
     0
1000
MTEXTEND
  0
LINE
  5
EB
330
DD
100
AcDbEntity
  8
0
 62
     7
100
AcDbLine
 10
117.9778035529668
 20
-21.22133728518264
 30
0.0
 11
138.335703353383
 21
-3.005332937282219
 31
0.0
  0
LINE
  5
EC
330
DD
100
AcDbEntity
  8
0
 62
     7
100
AcDbLine
 10
138.335703353383
 20
-3.005332937282219
 30
0.0
 11
142.454008693403
 21
-3.005332937282219
 31
0.0
  0
MTEXT
  5
ED
330
DD
100
AcDbEntity
  8
0
 62
     7
100
AcDbMText
 10
143.0422429851278
 20
0.1642339645859465
 30
0.0
 40
5.0
 41
30.03556079984628
 71
     1
 72
     5
  1
{\fArial|b0|i0|c0|p34;SINK}
 73
     1
 44
1.0
1001
ACAD
1000
MTEXTBEGIN
1070
    73
1070
     1
1070
    44
1040
1.0
1070
    74
1070
     0
1000
MTEXTEND
  0
ENDBLK
  5
EE
330
DD
100
AcDbEntity
  8
0
 62
     7
100
AcDbBlockEnd
  0
BLOCK
  5
F2
330
EF
100
AcDbEntity
  8
0
 62
     7
100
AcDbBlockBegin
  2
A$C050E5E0D
 70
     0
 10
0.0
 20
0.0
 30
0.0
  3
A$C050E5E0D
  1

  0
ARC
  5
F3
330
EF
100
AcDbEntity
  8
0
 62
     7
100
AcDbCircle
 10
526.4785777207653
 20
330.3660798956153
 30
0.0
 40
100.0
100
AcDbArc
 50
96.59634410750044
 51
174.7649444340072
  0
ARC
  5
F4
330
EF
100
AcDbEntity
  8
0
 62
     7
100
AcDbCircle
 10
687.301849786374
 20
330.3660798956153
 30
0.0
 40
100.0
100
AcDbArc
 50
5.235055565992813
 51
83.40365589249953
  0
ARC
  5
F5
330
EF
100
AcDbEntity
  8
0
 62
     7
100
AcDbCircle
 10
687.301849786374
 20
330.3660798956153
 30
0.0
 40
125.0
100
AcDbArc
 50
5.235055565992813
 51
83.40365589249953
  0
ARC
  5
F6
330
EF
100
AcDbEntity
  8
0
 62
     7
100
AcDbCircle
 10
285.3018497863741
 20
330.3660798956153
 30
0.0
 40
100.0
100
AcDbArc
 50
5.235055565992813
 51
83.40365589249953
  0
ARC
  5
F7
330
EF
100
AcDbEntity
  8
0
 62
     7
100
AcDbCircle
 10
124.4785777207653
 20
330.3660798956153
 30
0.0
 40
100.0
100
AcDbArc
 50
96.59634410750044
 51
174.7649444340072
  0
ARC
  5
F8
330
EF
100
AcDbEntity
  8
0
 62
     7
100
AcDbCircle
 10
124.4785777207653
 20
330.3660798956153
 30
0.0
 40
125.0
100
AcDbArc
 50
96.59634410750044
 51
174.7649444340072
  0
ARC
  5
F9
330
EF
100
AcDbEntity
  8
0
 62
     7
100
AcDbCircle
 10
285.3018497863741
 20
129.6339435148147
 30
0.0
 40
100.0
100
AcDbArc
 50
276.5963441075005
 51
354.7649444340074
  0
LINE
  5
FA
330
EF
100
AcDbEntity
  8
0
 62
     7
100
AcDbLine
 10
204.8902137535697
 20
0.0000117052131827
 30
0.0
 11
606.8902137535697
 21
0.0000117052131827
 31
0.0
  0
ARC
  5
FB
330
EF
100
AcDbEntity
  8
0
 62
     7
100
AcDbCircle
 10
124.4785777207653
 20
129.6339435148147
 30
0.0
 40
100.0
100
AcDbArc
 50
185.2350555659928
 51
263.4036558924996
  0
ARC
  5
FC
330
EF
100
AcDbEntity
  8
0
 62
     7
100
AcDbCircle
 10
124.4785777207653
 20
129.6339435148147
 30
0.0
 40
125.0
100
AcDbArc
 50
185.2350555659928
 51
263.4036558924996
  0
ARC
  5
FD
330
EF
100
AcDbEntity
  8
0
 62
     7
100
AcDbCircle
 10
204.8902137535697
 20
825.0000117052149
 30
0.0
 40
800.0
100
AcDbArc
 50
263.4036558924996
 51
276.5963441075005
  0
ARC
  5
FE
330
EF
100
AcDbEntity
  8
0
 62
     7
100
AcDbCircle
 10
204.8902137535697
 20
825.0000117052149
 30
0.0
 40
825.0
100
AcDbArc
 50
263.4036558924996
 51
270.0
  0
ARC
  5
FF
330
EF
100
AcDbEntity
  8
0
 62
     7
100
AcDbCircle
 10
1219.89021375357
 20
230.000011705215
 30
0.0
 40
1200.0
100
AcDbArc
 50
174.7649444340072
 51
185.2350555659928
  0
ARC
  5
100
330
EF
100
AcDbEntity
  8
0
 62
     7
100
AcDbCircle
 10
1219.89021375357
 20
230.000011705215
 30
0.0
 40
1225.0
100
AcDbArc
 50
174.7649444340072
 51
185.2350555659928
  0
ARC
  5
101
330
EF
100
AcDbEntity
  8
0
 62
     7
100
AcDbCircle
 10
687.301849786374
 20
129.6339435148147
 30
0.0
 40
100.0
100
AcDbArc
 50
276.5963441075005
 51
354.7649444340074
  0
ARC
  5
102
330
EF
100
AcDbEntity
  8
0
 62
     7
100
AcDbCircle
 10
687.301849786374
 20
129.6339435148147
 30
0.0
 40
125.0
100
AcDbArc
 50
276.5963441075005
 51
354.7649444340074
  0
ARC
  5
103
330
EF
100
AcDbEntity
  8
0
 62
     7
100
AcDbCircle
 10
526.4785777207653
 20
129.6339435148147
 30
0.0
 40
100.0
100
AcDbArc
 50
185.2350555659928
 51
263.4036558924996
  0
ARC
  5
104
330
EF
100
AcDbEntity
  8
0
 62
     7
100
AcDbCircle
 10
606.8902137535697
 20
825.0000117052149
 30
0.0
 40
800.0
100
AcDbArc
 50
263.4036558924996
 51
276.5963441075005
  0
ARC
  5
105
330
EF
100
AcDbEntity
  8
0
 62
     7
100
AcDbCircle
 10
606.8902137535697
 20
825.0000117052149
 30
0.0
 40
825.0
100
AcDbArc
 50
270.0
 51
276.5963441075005
  0
ARC
  5
106
330
EF
100
AcDbEntity
  8
0
 62
     7
100
AcDbCircle
 10
1621.89021375357
 20
230.000011705215
 30
0.0
 40
1200.0
100
AcDbArc
 50
174.7649444340072
 51
185.2350555659928
  0
ARC
  5
107
330
EF
100
AcDbEntity
  8
0
 62
     7
100
AcDbCircle
 10
-810.10978624643
 20
230.000011705215
 30
0.0
 40
1200.0
100
AcDbArc
 50
354.7649444340074
 51
5.235055565992813
  0
ARC
  5
108
330
EF
100
AcDbEntity
  8
0
 62
     7
100
AcDbCircle
 10
-408.1097862464303
 20
230.000011705215
 30
0.0
 40
1200.0
100
AcDbArc
 50
354.7649444340074
 51
5.235055565992813
  0
ARC
  5
109
330
EF
100
AcDbEntity
  8
0
 62
     7
100
AcDbCircle
 10
-408.1097862464303
 20
230.000011705215
 30
0.0
 40
1225.0
100
AcDbArc
 50
354.7649444340074
 51
5.235055565992813
  0
LINE
  5
10A
330
EF
100
AcDbEntity
  8
0
 62
     7
100
AcDbLine
 10
606.8902137535697
 20
460.0000117052148
 30
0.0
 11
204.8902137535697
 21
460.0000117052148
 31
0.0
  0
ARC
  5
10B
330
EF
100
AcDbEntity
  8
0
 62
     7
100
AcDbCircle
 10
204.8902137535697
 20
-364.999988294785
 30
0.0
 40
800.0
100
AcDbArc
 50
83.40365589249953
 51
96.59634410750044
  0
ARC
  5
10C
330
EF
100
AcDbEntity
  8
0
 62
     7
100
AcDbCircle
 10
204.8902137535697
 20
-364.999988294785
 30
0.0
 40
825.0
100
AcDbArc
 50
90.0
 51
96.59634410750044
  0
ARC
  5
10D
330
EF
100
AcDbEntity
  8
0
 62
     7
100
AcDbCircle
 10
606.8902137535697
 20
-364.999988294785
 30
0.0
 40
800.0
100
AcDbArc
 50
83.40365589249953
 51
96.59634410750044
  0
ARC
  5
10E
330
EF
100
AcDbEntity
  8
0
 62
     7
100
AcDbCircle
 10
606.8902137535697
 20
-364.999988294785
 30
0.0
 40
825.0
100
AcDbArc
 50
83.40365589249953
 51
90.0
  0
CIRCLE
  5
10F
330
EF
100
AcDbEntity
  8
0
 62
     7
100
AcDbCircle
 10
204.8902137535697
 20
285.000011705215
 30
0.0
 40
55.0
  0
CIRCLE
  5
110
330
EF
100
AcDbEntity
  8
0
 62
     7
100
AcDbCircle
 10
204.8902137535697
 20
285.000011705215
 30
0.0
 40
45.0
  0
CIRCLE
  5
111
330
EF
100
AcDbEntity
  8
0
 62
     7
100
AcDbCircle
 10
606.8902137535697
 20
285.000011705215
 30
0.0
 40
55.0
  0
CIRCLE
  5
112
330
EF
100
AcDbEntity
  8
0
 62
     7
100
AcDbCircle
 10
606.8902137535697
 20
285.000011705215
 30
0.0
 40
45.0
  0
ENDBLK
  5
113
330
EF
100
AcDbEntity
  8
0
 62
     7
100
AcDbBlockEnd
  0
BLOCK
  5
240
330
23D
100
AcDbEntity
  8
0
 62
     7
100
AcDbBlockBegin
  2
A$C1D634BA3
 70
     0
 10
0.0
 20
0.0
 30
0.0
  3
A$C1D634BA3
  1

  0
ARC
  5
241
330
23D
100
AcDbEntity
  8
DRAW
  6
Continuous
 62
     7
100
AcDbCircle
 10
692.8659166962352
 20
354.3719108063105
 30
0.0
 40
80.0
100
AcDbArc
 50
6.246964541926359
 51
82.27406338192311
  0
ARC
  5
242
330
23D
100
AcDbEntity
  8
DRAW
  6
Continuous
 62
     7
100
AcDbCircle
 10
692.8659166962352
 20
354.3719108063105
 30
0.0
 40
105.0
100
AcDbArc
 50
6.246964541926359
 51
82.27406338192311
  0
ARC
  5
243
330
23D
100
AcDbEntity
  8
DRAW
  6
Continuous
 62
     7
100
AcDbCircle
 10
-420.4836402960753
 20
232.4999946601038
 30
0.0
 40
1200.0
100
AcDbArc
 50
353.7530354580737
 51
6.246964541926359
  0
ARC
  5
244
330
23D
100
AcDbEntity
  8
DRAW
  6
Continuous
 62
     7
100
AcDbCircle
 10
-420.4836402960753
 20
232.4999946601038
 30
0.0
 40
1225.0
100
AcDbArc
 50
353.7530354580737
 51
6.246964541926359
  0
ARC
  5
245
330
23D
100
AcDbEntity
  8
DRAW
  6
Continuous
 62
     7
100
AcDbCircle
 10
692.8659166962352
 20
110.6280785138096
 30
0.0
 40
80.0
100
AcDbArc
 50
277.7259366180769
 51
353.7530354580737
  0
ARC
  5
246
330
23D
100
AcDbEntity
  8
DRAW
  6
Continuous
 62
     7
100
AcDbCircle
 10
692.8659166962352
 20
110.6280785138096
 30
0.0
 40
105.0
100
AcDbArc
 50
277.7259366180769
 51
353.7530354580737
  0
ARC
  5
247
330
23D
100
AcDbEntity
  8
DRAW
  6
Continuous
 62
     7
100
AcDbCircle
 10
609.5163597039245
 20
724.9999946601037
 30
0.0
 40
700.0
100
AcDbArc
 50
262.2740633819231
 51
277.7259366180769
  0
ARC
  5
248
330
23D
100
AcDbEntity
  8
DRAW
  6
Continuous
 62
     7
100
AcDbCircle
 10
609.5163597039245
 20
724.9999946601037
 30
0.0
 40
725.0
100
AcDbArc
 50
270.0
 51
277.7259366180769
  0
ARC
  5
249
330
23D
100
AcDbEntity
  8
DRAW
  6
Continuous
 62
     7
100
AcDbCircle
 10
526.1668027117301
 20
110.6280785138096
 30
0.0
 40
80.0
100
AcDbArc
 50
186.2469645419263
 51
262.2740633819231
  0
ARC
  5
24A
330
23D
100
AcDbEntity
  8
DRAW
  6
Continuous
 62
     7
100
AcDbCircle
 10
1639.516359703925
 20
232.4999946601038
 30
0.0
 40
1200.0
100
AcDbArc
 50
173.7530354580736
 51
186.2469645419263
  0
ARC
  5
24B
330
23D
100
AcDbEntity
  8
DRAW
  6
Continuous
 62
     7
100
AcDbCircle
 10
609.5163597039245
 20
-260.0000053398962
 30
0.0
 40
700.0
100
AcDbArc
 50
82.27406338192311
 51
97.72593661807691
  0
ARC
  5
24C
330
23D
100
AcDbEntity
  8
DRAW
  6
Continuous
 62
     7
100
AcDbCircle
 10
609.5163597039245
 20
-260.0000053398962
 30
0.0
 40
725.0
100
AcDbArc
 50
82.27406338192311
 51
90.0
  0
ARC
  5
24D
330
23D
100
AcDbEntity
  8
DRAW
  6
Continuous
 62
     7
100
AcDbCircle
 10
526.1668027117301
 20
354.3719108063105
 30
0.0
 40
80.0
100
AcDbArc
 50
97.72593661807691
 51
173.7530354580736
  0
ARC
  5
24E
330
23D
100
AcDbEntity
  8
DRAW
  6
Continuous
 62
     7
100
AcDbCircle
 10
1617.516359703923
 20
259.9999946601037
 30
0.0
 40
1600.0
100
AcDbArc
 50
174.4990894658473
 51
185.5009105341526
  0
ARC
  5
24F
330
23D
100
AcDbEntity
  8
DRAW
  6
Continuous
 62
     7
100
AcDbCircle
 10
1617.516359703923
 20
259.9999946601037
 30
0.0
 40
1625.0
100
AcDbArc
 50
174.4990894658473
 51
185.5009105341526
  0
ARC
  5
250
330
23D
100
AcDbEntity
  8
DRAW
  6
Continuous
 62
     7
100
AcDbCircle
 10
109.493426960722
 20
114.769714344804
 30
0.0
 40
85.0
100
AcDbArc
 50
185.5009105341526
 51
264.6984658388821
  0
ARC
  5
251
330
23D
100
AcDbEntity
  8
DRAW
  6
Continuous
 62
     7
100
AcDbCircle
 10
109.493426960722
 20
114.769714344804
 30
0.0
 40
110.0
100
AcDbArc
 50
185.5009105341526
 51
264.6984658388821
  0
ARC
  5
252
330
23D
100
AcDbEntity
  8
DRAW
  6
Continuous
 62
     7
100
AcDbCircle
 10
212.5163597039245
 20
1224.999994660104
 30
0.0
 40
1200.0
100
AcDbArc
 50
264.6984658388821
 51
275.3015341611179
  0
ARC
  5
253
330
23D
100
AcDbEntity
  8
DRAW
  6
Continuous
 62
     7
100
AcDbCircle
 10
212.5163597039245
 20
1224.999994660104
 30
0.0
 40
1225.0
100
AcDbArc
 50
264.6984658388821
 51
270.0
  0
ARC
  5
254
330
23D
100
AcDbEntity
  8
DRAW
  6
Continuous
 62
     7
100
AcDbCircle
 10
315.5392924472289
 20
114.769714344804
 30
0.0
 40
85.0
100
AcDbArc
 50
275.3015341611179
 51
354.4990894658473
  0
ARC
  5
255
330
23D
100
AcDbEntity
  8
DRAW
  6
Continuous
 62
     7
100
AcDbCircle
 10
-1192.483640296075
 20
259.9999946601037
 30
0.0
 40
1600.0
100
AcDbArc
 50
354.4990894658473
 51
5.500910534152658
  0
ARC
  5
256
330
23D
100
AcDbEntity
  8
DRAW
  6
Continuous
 62
     7
100
AcDbCircle
 10
315.5392924472289
 20
405.2302749754033
 30
0.0
 40
85.0
100
AcDbArc
 50
5.500910534152658
 51
84.69846583888203
  0
ARC
  5
257
330
23D
100
AcDbEntity
  8
DRAW
  6
Continuous
 62
     7
100
AcDbCircle
 10
315.5392924472289
 20
405.2302749754033
 30
0.0
 40
110.0
100
AcDbArc
 50
38.89711347941374
 51
84.69846583888203
  0
ARC
  5
258
330
23D
100
AcDbEntity
  8
DRAW
  6
Continuous
 62
     7
100
AcDbCircle
 10
420.6063882697433
 20
489.9999946601035
 30
0.0
 40
25.0
100
AcDbArc
 50
218.8971134794138
 51
270.0
  0
ARC
  5
259
330
23D
100
AcDbEntity
  8
DRAW
  6
Continuous
 62
     7
100
AcDbCircle
 10
212.5163597039245
 20
-705.0000053398962
 30
0.0
 40
1200.0
100
AcDbArc
 50
84.69846583888203
 51
95.30153416111792
  0
ARC
  5
25A
330
23D
100
AcDbEntity
  8
DRAW
  6
Continuous
 62
     7
100
AcDbCircle
 10
212.5163597039245
 20
-705.0000053398962
 30
0.0
 40
1225.0
100
AcDbArc
 50
84.69846583888203
 51
95.30153416111792
  0
ARC
  5
25B
330
23D
100
AcDbEntity
  8
DRAW
  6
Continuous
 62
     7
100
AcDbCircle
 10
109.493426960722
 20
405.2302749754033
 30
0.0
 40
85.0
100
AcDbArc
 50
95.30153416111792
 51
174.4990894658473
  0
ARC
  5
25C
330
23D
100
AcDbEntity
  8
DRAW
  6
Continuous
 62
     7
100
AcDbCircle
 10
109.493426960722
 20
405.2302749754033
 30
0.0
 40
110.0
100
AcDbArc
 50
95.30153416111792
 51
174.4990894658473
  0
CIRCLE
  5
25D
330
23D
100
AcDbEntity
  8
DRAW
  6
Continuous
 62
     7
100
AcDbCircle
 10
212.5163597039245
 20
344.9999946601038
 30
0.0
 40
45.0
  0
CIRCLE
  5
25E
330
23D
100
AcDbEntity
  8
DRAW
  6
Continuous
 62
     7
100
AcDbCircle
 10
212.5163597039245
 20
344.9999946601038
 30
0.0
 40
55.0
  0
CIRCLE
  5
25F
330
23D
100
AcDbEntity
  8
DRAW
  6
Continuous
 62
     7
100
AcDbCircle
 10
609.5163597039245
 20
299.9999946600983
 30
0.0
 40
45.0
  0
CIRCLE
  5
260
330
23D
100
AcDbEntity
  8
DRAW
  6
Continuous
 62
     7
100
AcDbCircle
 10
609.5163597039245
 20
299.9999946600983
 30
0.0
 40
55.0
  0
LINE
  5
261
330
23D
100
AcDbEntity
  8
DRAW
  6
Continuous
 62
     7
100
AcDbLine
 10
609.5163597039245
 20
-0.0000053398962336
 30
0.0
 11
212.5163597039245
 21
-0.0000053398962336
 31
0.0
  0
LINE
  5
262
330
23D
100
AcDbEntity
  8
DRAW
  6
Continuous
 62
     7
100
AcDbLine
 10
609.5163597039245
 20
464.9999946601035
 30
0.0
 11
420.6063882697433
 21
464.9999946601035
 31
0.0
  0
ENDBLK
  5
263
330
23D
100
AcDbEntity
  8
0
 62
     7
100
AcDbBlockEnd
  0
BLOCK
  5
450
330
44F
100
AcDbEntity
  8
0
100
AcDbBlockBegin
  2
*D5
 70
     1
 10
0.0
 20
0.0
 30
0.0
  3
*D5
  1

  0
LINE
  5
562
330
44F
100
AcDbEntity
  8
0
 62
     0
370
    -2
100
AcDbLine
 10
1047.591617236334
 20
684.5077598091521
 30
0.0
 11
757.3465374611863
 21
684.5077598091522
 31
0.0
  0
LINE
  5
563
330
44F
100
AcDbEntity
  8
0
 62
     0
370
    -2
100
AcDbLine
 10
1065.645659209751
 20
256.8077598091518
 30
0.0
 11
757.3465374611863
 21
256.8077598091518
 31
0.0
  0
LINE
  5
564
330
44F
100
AcDbEntity
  8
0
 62
     0
370
    -2
100
AcDbLine
 10
767.3465374611865
 20
674.5077598091523
 30
0.0
 11
767.3465374611865
 21
497.3244264758187
 31
0.0
  0
LINE
  5
565
330
44F
100
AcDbEntity
  8
0
 62
     0
370
    -2
100
AcDbLine
 10
767.3465374611865
 20
266.8077598091518
 30
0.0
 11
767.3465374611865
 21
443.9910931424853
 31
0.0
  0
SOLID
  5
566
330
44F
100
AcDbEntity
  8
0
 62
     0
100
AcDbTrace
 10
765.6798707945198
 20
674.5077598091523
 30
0.0
 11
769.0132041278531
 21
674.5077598091521
 31
0.0
 12
767.3465374611865
 22
684.5077598091522
 32
0.0
 13
767.3465374611865
 23
684.5077598091522
 33
0.0
  0
SOLID
  5
567
330
44F
100
AcDbEntity
  8
0
 62
     0
100
AcDbTrace
 10
765.6798707945198
 20
266.8077598091518
 30
0.0
 11
769.0132041278531
 21
266.8077598091518
 31
0.0
 12
767.3465374611865
 22
256.8077598091518
 32
0.0
 13
767.3465374611865
 23
256.8077598091518
 33
0.0
  0
MTEXT
  5
568
330
44F
100
AcDbEntity
  8
0
 62
     0
100
AcDbMText
 10
767.3465374611862
 20
470.6577598091521
 30
0.0
 40
20.0
 41
0.0
 71
     5
 72
     1
  1
\A1;16{\H0.800000x;\S7/8;}"
 73
     1
 44
1.0
1001
ACAD
1000
MTEXTBEGIN
1070
    73
1070
     1
1070
    44
1040
1.0
1070
    74
1070
     0
1000
MTEXTEND
  0
POINT
  5
569
330
44F
100
AcDbEntity
  8
DEFPOINTS
 62
     0
100
AcDbPoint
 10
1050.716617236334
 20
684.5077598091521
 30
0.0
  0
POINT
  5
56A
330
44F
100
AcDbEntity
  8
DEFPOINTS
 62
     0
100
AcDbPoint
 10
1068.770659209751
 20
256.8077598091518
 30
0.0
  0
POINT
  5
56B
330
44F
100
AcDbEntity
  8
DEFPOINTS
 62
     0
100
AcDbPoint
 10
767.3465374611865
 20
256.8077598091518
 30
0.0
  0
ENDBLK
  5
451
330
44F
100
AcDbEntity
  8
0
100
AcDbBlockEnd
  0
BLOCK
  5
45D
330
45C
100
AcDbEntity
  8
0
100
AcDbBlockBegin
  2
*D6
 70
     1
 10
0.0
 20
0.0
 30
0.0
  3
*D6
  1

  0
LINE
  5
56C
330
45C
100
AcDbEntity
  8
0
 62
     0
370
    -2
100
AcDbLine
 10
825.1017085436156
 20
467.5327598091518
 30
0.0
 11
825.1017085436156
 21
169.7794845044299
 31
0.0
  0
LINE
  5
56D
330
45C
100
AcDbEntity
  8
0
 62
     0
370
    -2
100
AcDbLine
 10
1599.801708543615
 20
495.032759809152
 30
0.0
 11
1599.801708543615
 21
169.7794845044299
 31
0.0
  0
LINE
  5
56E
330
45C
100
AcDbEntity
  8
0
 62
     0
370
    -2
100
AcDbLine
 10
835.1017085436156
 20
179.7794845044299
 30
0.0
 11
1589.801708543615
 21
179.7794845044299
 31
0.0
  0
SOLID
  5
56F
330
45C
100
AcDbEntity
  8
0
 62
     0
100
AcDbTrace
 10
835.1017085436156
 20
181.4461511710964
 30
0.0
 11
835.1017085436156
 21
178.1128178377632
 31
0.0
 12
825.1017085436156
 22
179.7794845044299
 32
0.0
 13
825.1017085436156
 23
179.7794845044299
 33
0.0
  0
SOLID
  5
570
330
45C
100
AcDbEntity
  8
0
 62
     0
100
AcDbTrace
 10
1589.801708543615
 20
181.4461511710964
 30
0.0
 11
1589.801708543615
 21
178.1128178377632
 31
0.0
 12
1599.801708543615
 22
179.7794845044299
 32
0.0
 13
1599.801708543615
 23
179.7794845044299
 33
0.0
  0
MTEXT
  5
571
330
45C
100
AcDbEntity
  8
0
 62
     0
100
AcDbMText
 10
1212.451708543615
 20
206.4461511710966
 30
0.0
 40
20.0
 41
0.0
 71
     5
 72
     1
  1
\A1;30{\H0.800000x;\S1/2;}"
 73
     1
 44
1.0
1001
ACAD
1000
MTEXTBEGIN
1070
    73
1070
     1
1070
    44
1040
1.0
1070
    74
1070
     0
1000
MTEXTEND
  0
POINT
  5
572
330
45C
100
AcDbEntity
  8
DEFPOINTS
 62
     0
100
AcDbPoint
 10
825.1017085436156
 20
470.6577598091518
 30
0.0
  0
POINT
  5
573
330
45C
100
AcDbEntity
  8
DEFPOINTS
 62
     0
100
AcDbPoint
 10
1599.801708543615
 20
498.157759809152
 30
0.0
  0
POINT
  5
574
330
45C
100
AcDbEntity
  8
DEFPOINTS
 62
     0
100
AcDbPoint
 10
1599.801708543615
 20
179.7794845044299
 30
0.0
  0
ENDBLK
  5
45E
330
45C
100
AcDbEntity
  8
0
100
AcDbBlockEnd
  0
BLOCK
  5
469
330
468
100
AcDbEntity
  8
0
100
AcDbBlockBegin
  2
*D7
 70
     1
 10
0.0
 20
0.0
 30
0.0
  3
*D7
  1

  0
LINE
  5
575
330
468
100
AcDbEntity
  8
0
 62
     0
370
    -2
100
AcDbLine
 10
1401.576708543616
 20
739.507759809152
 30
0.0
 11
1667.493528628316
 21
739.507759809152
 31
0.0
  0
LINE
  5
576
330
468
100
AcDbEntity
  8
0
 62
     0
370
    -2
100
AcDbLine
 10
1325.600858722855
 20
256.8077598091518
 30
0.0
 11
1667.493528628316
 21
256.8077598091516
 31
0.0
  0
LINE
  5
577
330
468
100
AcDbEntity
  8
0
 62
     0
370
    -2
100
AcDbLine
 10
1657.493528628316
 20
729.507759809152
 30
0.0
 11
1657.493528628316
 21
516.1577598091517
 31
0.0
  0
LINE
  5
578
330
468
100
AcDbEntity
  8
0
 62
     0
370
    -2
100
AcDbLine
 10
1657.493528628316
 20
266.8077598091517
 30
0.0
 11
1657.493528628316
 21
480.1577598091518
 31
0.0
  0
SOLID
  5
579
330
468
100
AcDbEntity
  8
0
 62
     0
100
AcDbTrace
 10
1655.826861961649
 20
729.507759809152
 30
0.0
 11
1659.160195294983
 21
729.507759809152
 31
0.0
 12
1657.493528628316
 22
739.507759809152
 32
0.0
 13
1657.493528628316
 23
739.507759809152
 33
0.0
  0
SOLID
  5
57A
330
468
100
AcDbEntity
  8
0
 62
     0
100
AcDbTrace
 10
1655.826861961649
 20
266.8077598091517
 30
0.0
 11
1659.160195294982
 21
266.8077598091517
 31
0.0
 12
1657.493528628316
 22
256.8077598091516
 32
0.0
 13
1657.493528628316
 23
256.8077598091516
 33
0.0
  0
MTEXT
  5
57B
330
468
100
AcDbEntity
  8
0
 62
     0
100
AcDbMText
 10
1657.493528628316
 20
498.1577598091521
 30
0.0
 40
20.0
 41
0.0
 71
     5
 72
     1
  1
\A1;19"
 73
     1
 44
1.0
1001
ACAD
1000
MTEXTBEGIN
1070
    73
1070
     1
1070
    44
1040
1.0
1070
    74
1070
     0
1000
MTEXTEND
  0
POINT
  5
57C
330
468
100
AcDbEntity
  8
DEFPOINTS
 62
     0
100
AcDbPoint
 10
1398.451708543616
 20
739.507759809152
 30
0.0
  0
POINT
  5
57D
330
468
100
AcDbEntity
  8
DEFPOINTS
 62
     0
100
AcDbPoint
 10
1322.475858722855
 20
256.8077598091518
 30
0.0
  0
POINT
  5
57E
330
468
100
AcDbEntity
  8
DEFPOINTS
 62
     0
100
AcDbPoint
 10
1657.493528628316
 20
256.8077598091516
 30
0.0
  0
ENDBLK
  5
46A
330
468
100
AcDbEntity
  8
0
100
AcDbBlockEnd
  0
BLOCK
  5
476
330
475
100
AcDbEntity
  8
0
100
AcDbBlockBegin
  2
*D8
 70
     1
 10
0.0
 20
0.0
 30
0.0
  3
*D8
  1

  0
LINE
  5
57F
330
475
100
AcDbEntity
  8
0
 62
     0
370
    -2
100
AcDbLine
 10
1092.781694260706
 20
678.1577598091518
 30
0.0
 11
1071.529478250251
 21
678.1577598091518
 31
0.0
  0
LINE
  5
580
330
475
100
AcDbEntity
  8
0
 62
     0
370
    -2
100
AcDbLine
 10
1092.781694260706
 20
684.5077598091521
 30
0.0
 11
1071.529478250251
 21
684.5077598091521
 31
0.0
  0
LINE
  5
581
330
475
100
AcDbEntity
  8
0
 62
     0
370
    -2
100
AcDbLine
 10
1081.529478250251
 20
668.1577598091518
 30
0.0
 11
1081.529478250251
 21
658.1577598091517
 31
0.0
  0
LINE
  5
582
330
475
100
AcDbEntity
  8
0
 62
     0
370
    -2
100
AcDbLine
 10
1081.529478250251
 20
694.507759809152
 30
0.0
 11
1081.529478250251
 21
704.5077598091523
 31
0.0
  0
LINE
  5
583
330
475
100
AcDbEntity
  8
0
 62
     0
370
    -2
100
AcDbLine
 10
1081.529478250251
 20
704.5077598091523
 30
0.0
 11
1112.196144916917
 21
704.5077598091523
 31
0.0
  0
SOLID
  5
584
330
475
100
AcDbEntity
  8
0
 62
     0
100
AcDbTrace
 10
1079.862811583584
 20
668.1577598091518
 30
0.0
 11
1083.196144916918
 21
668.1577598091518
 31
0.0
 12
1081.529478250251
 22
678.1577598091518
 32
0.0
 13
1081.529478250251
 23
678.1577598091518
 33
0.0
  0
SOLID
  5
585
330
475
100
AcDbEntity
  8
0
 62
     0
100
AcDbTrace
 10
1079.862811583584
 20
694.507759809152
 30
0.0
 11
1083.196144916918
 21
694.507759809152
 31
0.0
 12
1081.529478250251
 22
684.5077598091521
 32
0.0
 13
1081.529478250251
 23
684.5077598091521
 33
0.0
  0
MTEXT
  5
586
330
475
100
AcDbEntity
  8
0
 62
     0
100
AcDbMText
 10
1100.862811583584
 20
731.1744264758189
 30
0.0
 40
20.0
 41
0.0
 71
     5
 72
     1
  1
\A1;{\H0.800000x;\S1/4;}"
 73
     1
 44
1.0
1001
ACAD
1000
MTEXTBEGIN
1070
    73
1070
     1
1070
    44
1040
1.0
1070
    74
1070
     0
1000
MTEXTEND
  0
POINT
  5
587
330
475
100
AcDbEntity
  8
DEFPOINTS
 62
     0
100
AcDbPoint
 10
1095.906694260706
 20
678.1577598091518
 30
0.0
  0
POINT
  5
588
330
475
100
AcDbEntity
  8
DEFPOINTS
 62
     0
100
AcDbPoint
 10
1095.906694260706
 20
684.5077598091521
 30
0.0
  0
POINT
  5
589
330
475
100
AcDbEntity
  8
DEFPOINTS
 62
     0
100
AcDbPoint
 10
1081.529478250251
 20
684.5077598091521
 30
0.0
  0
ENDBLK
  5
477
330
475
100
AcDbEntity
  8
0
100
AcDbBlockEnd
  0
ENDSEC
  0
SECTION
  2
ENTITIES
  0
ARC
  5
41A
330
6C
100
AcDbEntity
  8
0
  6
CENTER2
 62
     7
 48
20.0
100
AcDbCircle
 10
918.102151551305
 20
592.5296759553589
 30
0.0
 40
80.0
100
AcDbArc
 50
97.72593661807691
 51
173.7530354580729
  0
ARC
  5
41B
330
6C
100
AcDbEntity
  8
DRAW
  6
Continuous
 62
     7
100
AcDbCircle
 10
918.102151551305
 20
592.5296759553589
 30
0.0
 40
86.34999999999998
100
AcDbArc
 50
97.72593661807691
 51
173.7530354580729
  0
ARC
  5
41C
330
6C
100
AcDbEntity
  8
0
  6
CENTER2
 62
     7
 48
20.0
100
AcDbCircle
 10
2031.451708543615
 20
470.6577598091518
 30
0.0
 40
1200.0
100
AcDbArc
 50
173.7530354580729
 51
186.2469645419271
  0
ARC
  5
41D
330
6C
100
AcDbEntity
  8
DRAW
  6
Continuous
 62
     7
100
AcDbCircle
 10
2031.451708543615
 20
470.6577598091518
 30
0.0
 40
1206.35
100
AcDbArc
 50
173.7530354580729
 51
186.2469645419271
  0
ARC
  5
41E
330
6C
100
AcDbEntity
  8
0
  6
CENTER2
 62
     7
 48
20.0
100
AcDbCircle
 10
918.102151551305
 20
348.7858436628578
 30
0.0
 40
80.0
100
AcDbArc
 50
186.2469645419271
 51
262.2740633819231
  0
ARC
  5
41F
330
6C
100
AcDbEntity
  8
DRAW
  6
Continuous
 62
     7
100
AcDbCircle
 10
918.102151551305
 20
348.7858436628578
 30
0.0
 40
86.34999999999998
100
AcDbArc
 50
186.2469645419271
 51
262.2740633819231
  0
ARC
  5
420
330
6C
100
AcDbEntity
  8
0
  6
CENTER2
 62
     7
 48
20.0
100
AcDbCircle
 10
1001.451708543616
 20
963.1577598091515
 30
0.0
 40
700.0
100
AcDbArc
 50
262.2740633819231
 51
270.0
  0
ARC
  5
421
330
6C
100
AcDbEntity
  8
DRAW
  6
Continuous
 62
     7
100
AcDbCircle
 10
1001.451708543616
 20
963.1577598091515
 30
0.0
 40
706.35
100
AcDbArc
 50
262.2740633819231
 51
270.0
  0
ARC
  5
422
330
6C
100
AcDbEntity
  8
0
  6
CENTER2
 62
     7
 48
20.0
100
AcDbCircle
 10
1001.451708543616
 20
-21.84224019084786
 30
0.0
 40
700.0
100
AcDbArc
 50
90.0
 51
97.72593661807691
  0
ARC
  5
423
330
6C
100
AcDbEntity
  8
DRAW
  6
Continuous
 62
     7
100
AcDbCircle
 10
1001.451708543616
 20
-21.84224019084786
 30
0.0
 40
706.35
100
AcDbArc
 50
90.0
 51
97.72593661807691
  0
ARC
  5
424
330
6C
100
AcDbEntity
  8
0
  6
CENTER2
 62
     7
 48
20.0
100
AcDbCircle
 10
-6.548291456384959
 20
498.1577598091518
 30
0.0
 40
1600.0
100
AcDbArc
 50
354.4990894658461
 51
5.500910534153907
  0
ARC
  5
425
330
6C
100
AcDbEntity
  8
DRAW
  6
Continuous
 62
     7
100
AcDbCircle
 10
-6.548291456384959
 20
498.1577598091518
 30
0.0
 40
1606.35
100
AcDbArc
 50
354.4990894658461
 51
5.500910534153907
  0
ARC
  5
426
330
6C
100
AcDbEntity
  8
0
  6
CENTER2
 62
     7
 48
20.0
100
AcDbCircle
 10
1501.474641286818
 20
352.9274794938519
 30
0.0
 40
85.0
100
AcDbArc
 50
275.3015341611179
 51
354.4990894658461
  0
ARC
  5
427
330
6C
100
AcDbEntity
  8
DRAW
  6
Continuous
 62
     7
100
AcDbCircle
 10
1501.474641286818
 20
352.9274794938519
 30
0.0
 40
91.34999999999999
100
AcDbArc
 50
275.3015341611179
 51
354.4990894658461
  0
ARC
  5
428
330
6C
100
AcDbEntity
  8
0
  6
CENTER2
 62
     7
 48
20.0
100
AcDbCircle
 10
1398.451708543615
 20
1463.157759809152
 30
0.0
 40
1200.0
100
AcDbArc
 50
270.0
 51
275.3015341611179
  0
ARC
  5
429
330
6C
100
AcDbEntity
  8
DRAW
  6
Continuous
 62
     7
100
AcDbCircle
 10
1398.451708543615
 20
1463.157759809152
 30
0.0
 40
1206.35
100
AcDbArc
 50
270.0
 51
275.3015341611179
  0
ARC
  5
42A
330
6C
100
AcDbEntity
  8
0
  6
CENTER2
 62
     7
 48
20.0
100
AcDbCircle
 10
1295.428775800311
 20
643.3880401244517
 30
0.0
 40
85.0
100
AcDbArc
 50
95.30153416111792
 51
141.1028865205944
  0
ARC
  5
42B
330
6C
100
AcDbEntity
  8
DRAW
  6
Continuous
 62
     7
100
AcDbCircle
 10
1295.428775800311
 20
643.3880401244517
 30
0.0
 40
91.34999999999999
100
AcDbArc
 50
95.30153416111792
 51
141.1028865205944
  0
ARC
  5
42C
330
6C
100
AcDbEntity
  8
DRAW
  6
Continuous
 62
     7
100
AcDbCircle
 10
1190.361679977797
 20
728.1577598091518
 30
0.0
 40
43.65
100
AcDbArc
 50
270.0
 51
321.1028865205944
  0
ARC
  5
42D
330
6C
100
AcDbEntity
  8
0
  6
CENTER2
 62
     7
 48
20.0
100
AcDbCircle
 10
1190.361679977797
 20
728.1577598091518
 30
0.0
 40
50.0
100
AcDbArc
 50
270.0
 51
321.1028865205944
  0
ARC
  5
42E
330
6C
100
AcDbEntity
  8
0
  6
CENTER2
 62
     7
 48
20.0
100
AcDbCircle
 10
1398.451708543615
 20
-466.8422401908478
 30
0.0
 40
1200.0
100
AcDbArc
 50
84.69846583888203
 51
95.30153416111792
  0
ARC
  5
42F
330
6C
100
AcDbEntity
  8
DRAW
  6
Continuous
 62
     7
100
AcDbCircle
 10
1398.451708543615
 20
-466.8422401908478
 30
0.0
 40
1206.35
100
AcDbArc
 50
84.69846583888203
 51
95.30153416111792
  0
ARC
  5
430
330
6C
100
AcDbEntity
  8
0
  6
CENTER2
 62
     7
 48
20.0
100
AcDbCircle
 10
1501.474641286818
 20
643.3880401244517
 30
0.0
 40
85.0
100
AcDbArc
 50
5.500910534153907
 51
84.69846583888203
  0
ARC
  5
431
330
6C
100
AcDbEntity
  8
DRAW
  6
Continuous
 62
     7
100
AcDbCircle
 10
1501.474641286818
 20
643.3880401244517
 30
0.0
 40
91.34999999999999
100
AcDbArc
 50
5.500910534153907
 51
84.69846583888203
  0
LINE
  5
432
330
6C
100
AcDbEntity
  8
DRAW
  6
Continuous
 62
     7
100
AcDbLine
 10
1001.451708543616
 20
684.5077598091521
 30
0.0
 11
1190.361679977797
 21
684.5077598091521
 31
0.0
  0
LINE
  5
433
330
6C
100
AcDbEntity
  8
0
  6
CENTER2
 62
     7
 48
20.0
100
AcDbLine
 10
1001.451708543616
 20
678.1577598091518
 30
0.0
 11
1190.361679977797
 21
678.1577598091518
 31
0.0
  0
LINE
  5
434
330
6C
100
AcDbEntity
  8
0
 62
     7
100
AcDbLine
 10
1001.451708543616
 20
256.8077598091518
 30
0.0
 11
1398.451708543615
 21
256.8077598091518
 31
0.0
  0
LINE
  5
435
330
6C
100
AcDbEntity
  8
0
  6
CENTER2
 62
     7
 48
20.0
100
AcDbLine
 10
1001.451708543616
 20
263.1577598091519
 30
0.0
 11
1398.451708543615
 21
263.1577598091519
 31
0.0
  0
INSERT
  5
436
330
6C
100
AcDbEntity
  8
0
 62
     7
100
AcDbBlockReference
  2
A$C1D634BA3
 10
1092.485433918268
 20
504.1117645987529
 30
0.0
 41
-0.1920000000000073
 42
0.1920000000000073
 43
0.192
  0
INSERT
  5
437
330
6C
100
AcDbEntity
  8
0
 62
     7
100
AcDbBlockReference
  2
A$C40C2364E
 10
1344.591369989716
 20
575.6951395720359
 30
0.0
 41
0.9421147827911228
 42
0.9421147827911228
 43
0.9421147827911228
  0
MTEXT
  5
438
330
6C
100
AcDbEntity
  8
0
 62
     7
100
AcDbMText
 10
996.3729269803776
 20
279.3888556830761
 30
0.0
 40
5.0
 41
411.7917988754052
 71
     1
 72
     5
  1
{\fArial|b0|i0|c0|p34;Use this line for FLUSH MOUNT CUT.}
 73
     1
 44
1.0
1001
ACAD
1000
MTEXTBEGIN
1070
    73
1070
     1
1070
    44
1040
1.0
1070
    74
1070
     0
1000
MTEXTEND
  0
LEADER
  5
439
330
6C
100
AcDbEntity
  8
0
 62
     7
100
AcDbLeader
  3
15
 76
     2
 10
1122.377487652219
 20
263.1789335980761
 30
0.0
 10
1111.516130352983
 20
272.637138072391
 30
0.0
  0
MTEXT
  5
43A
330
6C
100
AcDbEntity
  8
0
 62
     7
100
AcDbMText
 10
1205.979707433556
 20
397.6764362029911
 30
0.0
 40
7.0
 41
411.7917988754052
 71
     1
 72
     5
  1
{\fArial|b1|i0|c0|p34;Use outside line for reveal mount cut:\P\fArial|b0|i0|c0|p34;sink rim is 1/4" revealed from the countertop opening.}
 73
     1
 44
1.0
1001
ACAD
1000
MTEXTBEGIN
1070
    73
1070
     1
1070
    44
1040
1.0
1070
    74
1070
     0
1000
MTEXTEND
  0
MTEXT
  5
43B
330
6C
100
AcDbEntity
  8
0
 62
     7
100
AcDbMText
 10
1205.979707433556
 20
366.7182734017182
 30
0.0
 40
7.0
 41
411.7917988754052
 71
     1
 72
     5
  1
{\fArial|b1|i0|c0|p34;Use inside line for flush mount cut:\P\fArial|b0|i0|c0|p34;sink wall is flush to the edge of countertop opening.}
 73
     1
 44
1.0
1001
ACAD
1000
MTEXTBEGIN
1070
    73
1070
     1
1070
    44
1040
1.0
1070
    74
1070
     0
1000
MTEXTEND
  0
MTEXT
  5
43C
330
6C
100
AcDbEntity
  8
0
 62
     7
100
AcDbMText
 10
1205.979707433556
 20
335.7601106004449
 30
0.0
 40
7.0
 41
411.7917988754052
 71
     1
 72
     5
  1
{\fArial|b0|i0|c0|p34;Please check actual template against  physical sink unit for most accurate cut!}
 73
     1
 44
1.0
1001
ACAD
1000
MTEXTBEGIN
1070
    73
1070
     1
1070
    44
1040
1.0
1070
    74
1070
     0
1000
MTEXTEND
  0
CIRCLE
  5
43D
330
6C
100
AcDbEntity
  8
0
 62
     7
100
AcDbCircle
 10
1212.609281317931
 20
498.1577598091518
 30
0.0
 40
2.499999999999999
  0
CIRCLE
  5
43E
330
6C
100
AcDbEntity
  8
0
 62
     7
100
AcDbCircle
 10
1573.451708543615
 20
498.1577598091518
 30
0.0
 40
2.499999999999999
  0
CIRCLE
  5
43F
330
6C
100
AcDbEntity
  8
0
 62
     7
100
AcDbCircle
 10
1212.609281317931
 20
663.380039516461
 30
0.0
 40
2.499999999999999
  0
CIRCLE
  5
440
330
6C
100
AcDbEntity
  8
0
 62
     7
100
AcDbCircle
 10
851.7668540922482
 20
498.1577598091518
 30
0.0
 40
2.499999999999999
  0
CIRCLE
  5
441
330
6C
100
AcDbEntity
  8
0
 62
     7
100
AcDbCircle
 10
1212.609281317931
 20
283.1577598091519
 30
0.0
 40
2.499999999999999
  0
MTEXT
  5
595
102
{ACAD_XDICTIONARY
360
61D
102
}
330
6C
100
AcDbEntity
  8
0
100
AcDbMText
 10
966.0929784311532
 20
479.5729520585938
 30
0.0
 40
8.0
 41
134.0584383407235
 71
     1
 72
     5
  1
\A1;{\fTimes New Roman|b0|i0|c0|p18;32 1/4"\U+00D720 5/8"\U+00D77"-9"}
 73
     1
 44
1.0
1001
ACAD
1000
ACAD_MTEXT_COLUMN_INFO_BEGIN
1070
    75
1070
     2
1070
    79
1070
     0
1070
    76
1070
     1
1070
    78
1070
     0
1070
    48
1040
134.0584383407235
1070
    49
1040
1.0
1070
    50
1070
     1
1040
0.0
1000
ACAD_MTEXT_COLUMN_INFO_END
1000
MTEXTBEGIN
1070
    73
1070
     1
1070
    44
1040
1.0
1070
    74
1070
     0
1000
MTEXTEND
  0
MTEXT
  5
596
330
6C
100
AcDbEntity
  8
0
100
AcDbMText
 10
997.3823700735058
 20
460.1438258866498
 30
0.0
 40
8.0
 41
112.6025479869927
 71
     1
 72
     5
  1
\A1;{\fTimes New Roman|b0|i0|c0|p18;M2300R}
 73
     1
 44
1.0
1001
ACAD
1000
ACAD_MTEXT_COLUMN_INFO_BEGIN
1070
    75
1070
     2
1070
    79
1070
     0
1070
    76
1070
     1
1070
    78
1070
     0
1070
    48
1040
112.6025479869927
1070
    49
1040
1.0
1070
    50
1070
     1
1040
0.0
1000
ACAD_MTEXT_COLUMN_INFO_END
1000
MTEXTBEGIN
1070
    73
1070
     1
1070
    44
1040
1.0
1070
    74
1070
     0
1000
MTEXTEND
  0
ENDSEC
  0
SECTION
  2
OBJECTS
  0
DICTIONARY
  5
C
330
0
100
AcDbDictionary
281
     1
  3
ACAD_2007HEADERVARS_RT
350
5E4
  3
ACAD_COLOR
350
63
  3
ACAD_GROUP
350
D
  3
ACAD_LAYOUT
350
62
  3
ACAD_MATERIAL
350
10
  3
ACAD_MLEADERSTYLE
350
66
  3
ACAD_MLINESTYLE
350
5F
  3
ACAD_PLOTSETTINGS
350
61
  3
ACAD_PLOTSTYLENAME
350
E
  3
ACAD_SCALELIST
350
42
  3
ACAD_TABLESTYLE
350
64
  3
ACAD_VISUALSTYLE
350
29
  3
ACDB_RECOMPOSE_DATA
350
5E2
  3
AcDbVariableDictionary
350
4E2
  3
DWGPROPS
350
5E3
  0
DICTIONARY
  5
4A4
330
8
100
AcDbDictionary
280
     1
281
     1
  0
DICTIONARY
  5
144
330
2
100
AcDbDictionary
280
     1
281
     1
  3
ACAD_LAYERSTATES
360
145
  0
DICTIONARY
  5
299
330
298
100
AcDbDictionary
280
     1
281
     1
  0
DICTIONARY
  5
79
330
78
100
AcDbDictionary
280
     1
281
     1
  3
ACAD_SORTENTS
360
7A
  0
DICTIONARY
  5
DE
330
DD
100
AcDbDictionary
280
     1
281
     1
  3
ACAD_SORTENTS
360
DF
  0
DICTIONARY
  5
F0
330
EF
100
AcDbDictionary
280
     1
281
     1
  3
ACAD_SORTENTS
360
F1
  0
DICTIONARY
  5
23E
330
23D
100
AcDbDictionary
280
     1
281
     1
  3
ACAD_SORTENTS
360
23F
  0
DICTIONARY
  5
61D
330
595
100
AcDbDictionary
280
     1
281
     1
  3
ACAD_MTEXT_RT
360
61E
  0
DICTIONARY
  5
5E4
102
{ACAD_REACTORS
330
C
102
}
330
C
100
AcDbDictionary
281
     1
  3
DIMFXL
350
5E5
  0
DICTIONARY
  5
63
102
{ACAD_REACTORS
330
C
102
}
330
C
100
AcDbDictionary
281
     1
  0
DICTIONARY
  5
D
102
{ACAD_REACTORS
330
C
102
}
330
C
100
AcDbDictionary
281
     1
  0
DICTIONARY
  5
62
102
{ACAD_REACTORS
330
C
102
}
330
C
100
AcDbDictionary
281
     1
  3
Model
350
6F
  3
布局1
350
6B
  3
布局2
350
73
  0
DICTIONARY
  5
10
102
{ACAD_REACTORS
330
C
102
}
330
C
100
AcDbDictionary
281
     1
  3
ByBlock
350
19
  3
ByLayer
350
11
  3
Global
350
21
  0
DICTIONARY
  5
66
102
{ACAD_REACTORS
330
C
102
}
330
C
100
AcDbDictionary
281
     1
  3
Standard
350
67
  0
DICTIONARY
  5
5F
102
{ACAD_REACTORS
330
C
102
}
330
C
100
AcDbDictionary
281
     1
  3
Standard
350
60
  0
DICTIONARY
  5
61
102
{ACAD_REACTORS
330
C
102
}
330
C
100
AcDbDictionary
281
     1
  0
ACDBDICTIONARYWDFLT
  5
E
102
{ACAD_REACTORS
330
C
102
}
330
C
100
AcDbDictionary
281
     1
  3
Normal
350
F
100
AcDbDictionaryWithDefault
340
F
  0
DICTIONARY
  5
42
102
{ACAD_REACTORS
330
C
102
}
330
C
100
AcDbDictionary
281
     1
  3
A0
350
43
  3
A1
350
44
  3
A2
350
45
  3
A3
350
46
  3
A4
350
47
  3
A5
350
48
  3
A6
350
49
  3
A7
350
4A
  3
A8
350
4B
  3
A9
350
4C
  3
B0
350
4D
  3
B1
350
4E
  3
B2
350
4F
  3
B3
350
50
  3
B4
350
51
  3
B5
350
52
  3
B6
350
53
  0
DICTIONARY
  5
64
102
{ACAD_REACTORS
330
C
102
}
330
C
100
AcDbDictionary
281
     1
  3
Standard
350
65
  0
DICTIONARY
  5
29
102
{ACAD_REACTORS
330
C
102
}
330
C
100
AcDbDictionary
281
     1
  3
2dWireframe
350
2F
  3
Basic
350
2E
  3
Brighten
350
35
  3
ColorChange
350
39
  3
Conceptual
350
32
  3
Dim
350
34
  3
EdgeColorOff
350
41
  3
Facepattern
350
38
  3
Flat
350
2A
  3
FlatWithEdges
350
2B
  3
Gouraud
350
2C
  3
GouraudWithEdges
350
2D
  3
Hidden
350
31
  3
JitterOff
350
3F
  3
Linepattern
350
37
  3
OverhangOff
350
40
  3
Realistic
350
33
  3
Shaded
350
3E
  3
Shaded with edges
350
3D
  3
Shades of Gray
350
3A
  3
Sketchy
350
3B
  3
Thicken
350
36
  3
Wireframe
350
30
  3
X-Ray
350
3C
  0
XRECORD
  5
5E2
102
{ACAD_REACTORS
330
C
102
}
330
C
100
AcDbXrecord
280
     1
 90
        1
330
65
330
595
330
596
  0
DICTIONARY
  5
4E2
102
{ACAD_REACTORS
330
C
102
}
330
C
100
AcDbDictionary
281
     1
  3
CANNOSCALE
350
4E6
  3
CMLEADERSTYLE
350
4E4
  3
CTABLESTYLE
350
4E3
  3
DIMASSOC
350
4ED
  3
HIDETEXT
350
4EC
  3
INDEXCTL
350
4EB
  3
LAYEREVAL
350
4E8
  3
LAYERNOTIFY
350
4E9
  3
LIGHTINGUNITS
350
4E7
  3
MSLTSCALE
350
4E5
  3
SORTENTS
350
4EA
  3
XCLIPFRAME
350
5E0
  0
XRECORD
  5
5E3
102
{ACAD_REACTORS
330
C
102
}
330
C
100
AcDbXrecord
280
     1
  1
DWGPROPS COOKIE
  2

  3

  4

  6

  7

  8
sales9
  9

300
=
301
=
302
=
303
=
304
=
305
=
306
=
307
=
308
=
309
=
 40
0.0078711342592593
 41
2456023.586240185
 42
2457169.706134919
  1

 90
        0
  0
DICTIONARY
  5
145
102
{ACAD_REACTORS
330
144
102
}
330
144
100
AcDbDictionary
281
     1
  0
SORTENTSTABLE
  5
7A
102
{ACAD_REACTORS
330
79
102
}
330
79
100
AcDbSortentsTable
330
78
  0
SORTENTSTABLE
  5
DF
102
{ACAD_REACTORS
330
DE
102
}
330
DE
100
AcDbSortentsTable
330
DD
  0
SORTENTSTABLE
  5
F1
102
{ACAD_REACTORS
330
F0
102
}
330
F0
100
AcDbSortentsTable
330
EF
  0
SORTENTSTABLE
  5
23F
102
{ACAD_REACTORS
330
23E
102
}
330
23E
100
AcDbSortentsTable
330
23D
  0
XRECORD
  5
61E
102
{ACAD_REACTORS
330
61D
102
}
330
61D
100
AcDbXrecord
280
     1
 40
159421.0
  1
\A1;{\fTimes New Roman|b0|i0|c0|p18;32 1/4"\U+00D720 5/8"\U+00D77"-9"}
  0
XRECORD
  5
5E5
102
{ACAD_REACTORS
330
5E4
102
}
330
5E4
100
AcDbXrecord
280
     1
 40
1.25
  0
LAYOUT
  5
6F
102
{ACAD_XDICTIONARY
360
619
102
}
102
{ACAD_REACTORS
330
62
102
}
330
62
100
AcDbPlotSettings
  1

  2
Canon MF4360-4390
  4

  6

 40
0.0
 41
0.0
 42
0.0
 43
0.0
 44
0.0
 45
0.0
 46
0.0
 47
0.0
 48
0.0
 49
0.0
140
0.0
141
0.0
142
1.0
143
1.0
 70
  1712
 72
     0
 73
     0
 74
     0
  7

 75
     0
147
1.0
148
0.0
149
0.0
100
AcDbLayout
  1
Model
 70
     1
 71
     0
 10
0.0
 20
0.0
 11
12.0
 21
9.0
 12
0.0
 22
0.0
 32
0.0
 14
0.0
 24
0.0
 34
0.0
 15
0.0
 25
0.0
 35
0.0
146
0.0
 13
0.0
 23
0.0
 33
0.0
 16
1.0
 26
0.0
 36
0.0
 17
0.0
 27
1.0
 37
0.0
 76
     0
330
6C
331
57
  0
LAYOUT
  5
6B
102
{ACAD_XDICTIONARY
360
617
102
}
102
{ACAD_REACTORS
330
62
102
}
330
62
100
AcDbPlotSettings
  1

  2
Canon MF4360-4390
  4

  6

 40
0.0
 41
0.0
 42
0.0
 43
0.0
 44
0.0
 45
0.0
 46
0.0
 47
0.0
 48
0.0
 49
0.0
140
0.0
141
0.0
142
1.0
143
1.0
 70
   688
 72
     0
 73
     0
 74
     5
  7

 75
    16
147
1.0
148
0.0
149
0.0
100
AcDbLayout
  1
布局1
 70
     1
 71
     1
 10
0.0
 20
0.0
 11
12.0
 21
9.0
 12
0.0
 22
0.0
 32
0.0
 14
1.000000000000000E+20
 24
1.000000000000000E+20
 34
1.000000000000000E+20
 15
-1.000000000000000E+20
 25
-1.000000000000000E+20
 35
-1.000000000000000E+20
146
0.0
 13
0.0
 23
0.0
 33
0.0
 16
1.0
 26
0.0
 36
0.0
 17
0.0
 27
1.0
 37
0.0
 76
     0
330
68
  0
LAYOUT
  5
73
102
{ACAD_XDICTIONARY
360
61B
102
}
102
{ACAD_REACTORS
330
62
102
}
330
62
100
AcDbPlotSettings
  1

  2
Canon MF4360-4390
  4

  6

 40
0.0
 41
0.0
 42
0.0
 43
0.0
 44
0.0
 45
0.0
 46
0.0
 47
0.0
 48
0.0
 49
0.0
140
0.0
141
0.0
142
1.0
143
1.0
 70
   688
 72
     0
 73
     0
 74
     5
  7

 75
    16
147
1.0
148
0.0
149
0.0
100
AcDbLayout
  1
布局2
 70
     1
 71
     2
 10
0.0
 20
0.0
 11
12.0
 21
9.0
 12
0.0
 22
0.0
 32
0.0
 14
0.0
 24
0.0
 34
0.0
 15
0.0
 25
0.0
 35
0.0
146
0.0
 13
0.0
 23
0.0
 33
0.0
 16
1.0
 26
0.0
 36
0.0
 17
0.0
 27
1.0
 37
0.0
 76
     0
330
70
  0
MATERIAL
  5
19
102
{ACAD_XDICTIONARY
360
1A
102
}
102
{ACAD_REACTORS
330
10
102
}
330
10
100
AcDbMaterial
  1
ByBlock
 72
     0
 43
0.0208333333333333
 43
0.0
 43
0.0
 43
0.0
 43
0.0
 43
0.0208333333333333
 43
0.0
 43
0.0
 43
0.0
 43
0.0
 43
1.0
 43
0.0
 43
0.0
 43
0.0
 43
0.0
 43
1.0
 77
     0
 47
0.0208333333333333
 47
0.0
 47
0.0
 47
0.0
 47
0.0
 47
0.0208333333333333
 47
0.0
 47
0.0
 47
0.0
 47
0.0
 47
1.0
 47
0.0
 47
0.0
 47
0.0
 47
0.0
 47
1.0
171
     0
 49
0.0208333333333333
 49
0.0
 49
0.0
 49
0.0
 49
0.0
 49
0.0208333333333333
 49
0.0
 49
0.0
 49
0.0
 49
0.0
 49
1.0
 49
0.0
 49
0.0
 49
0.0
 49
0.0
 49
1.0
175
     0
142
0.0208333333333333
142
0.0
142
0.0
142
0.0
142
0.0
142
0.0208333333333333
142
0.0
142
0.0
142
0.0
142
0.0
142
1.0
142
0.0
142
0.0
142
0.0
142
0.0
142
1.0
179
     0
144
0.0208333333333333
144
0.0
144
0.0
144
0.0
144
0.0
144
0.0208333333333333
144
0.0
144
0.0
144
0.0
144
0.0
144
1.0
144
0.0
144
0.0
144
0.0
144
0.0
144
1.0
147
0.0208333333333333
147
0.0
147
0.0
147
0.0
147
0.0
147
0.0208333333333333
147
0.0
147
0.0
147
0.0
147
0.0
147
1.0
147
0.0
147
0.0
147
0.0
147
0.0
147
1.0
  0
MATERIAL
  5
11
102
{ACAD_XDICTIONARY
360
12
102
}
102
{ACAD_REACTORS
330
10
102
}
330
10
100
AcDbMaterial
  1
ByLayer
 72
     0
 43
0.0208333333333333
 43
0.0
 43
0.0
 43
0.0
 43
0.0
 43
0.0208333333333333
 43
0.0
 43
0.0
 43
0.0
 43
0.0
 43
1.0
 43
0.0
 43
0.0
 43
0.0
 43
0.0
 43
1.0
 77
     0
 47
0.0208333333333333
 47
0.0
 47
0.0
 47
0.0
 47
0.0
 47
0.0208333333333333
 47
0.0
 47
0.0
 47
0.0
 47
0.0
 47
1.0
 47
0.0
 47
0.0
 47
0.0
 47
0.0
 47
1.0
171
     0
 49
0.0208333333333333
 49
0.0
 49
0.0
 49
0.0
 49
0.0
 49
0.0208333333333333
 49
0.0
 49
0.0
 49
0.0
 49
0.0
 49
1.0
 49
0.0
 49
0.0
 49
0.0
 49
0.0
 49
1.0
175
     0
142
0.0208333333333333
142
0.0
142
0.0
142
0.0
142
0.0
142
0.0208333333333333
142
0.0
142
0.0
142
0.0
142
0.0
142
1.0
142
0.0
142
0.0
142
0.0
142
0.0
142
1.0
179
     0
144
0.0208333333333333
144
0.0
144
0.0
144
0.0
144
0.0
144
0.0208333333333333
144
0.0
144
0.0
144
0.0
144
0.0
144
1.0
144
0.0
144
0.0
144
0.0
144
0.0
144
1.0
147
0.0208333333333333
147
0.0
147
0.0
147
0.0
147
0.0
147
0.0208333333333333
147
0.0
147
0.0
147
0.0
147
0.0
147
1.0
147
0.0
147
0.0
147
0.0
147
0.0
147
1.0
  0
MATERIAL
  5
21
102
{ACAD_XDICTIONARY
360
22
102
}
102
{ACAD_REACTORS
330
10
102
}
330
10
100
AcDbMaterial
  1
Global
 72
     0
 43
0.0208333333333333
 43
0.0
 43
0.0
 43
0.0
 43
0.0
 43
0.0208333333333333
 43
0.0
 43
0.0
 43
0.0
 43
0.0
 43
1.0
 43
0.0
 43
0.0
 43
0.0
 43
0.0
 43
1.0
 77
     0
 47
0.0208333333333333
 47
0.0
 47
0.0
 47
0.0
 47
0.0
 47
0.0208333333333333
 47
0.0
 47
0.0
 47
0.0
 47
0.0
 47
1.0
 47
0.0
 47
0.0
 47
0.0
 47
0.0
 47
1.0
171
     0
 49
0.0208333333333333
 49
0.0
 49
0.0
 49
0.0
 49
0.0
 49
0.0208333333333333
 49
0.0
 49
0.0
 49
0.0
 49
0.0
 49
1.0
 49
0.0
 49
0.0
 49
0.0
 49
0.0
 49
1.0
175
     0
142
0.0208333333333333
142
0.0
142
0.0
142
0.0
142
0.0
142
0.0208333333333333
142
0.0
142
0.0
142
0.0
142
0.0
142
1.0
142
0.0
142
0.0
142
0.0
142
0.0
142
1.0
179
     0
144
0.0208333333333333
144
0.0
144
0.0
144
0.0
144
0.0
144
0.0208333333333333
144
0.0
144
0.0
144
0.0
144
0.0
144
1.0
144
0.0
144
0.0
144
0.0
144
0.0
144
1.0
147
0.0208333333333333
147
0.0
147
0.0
147
0.0
147
0.0
147
0.0208333333333333
147
0.0
147
0.0
147
0.0
147
0.0
147
1.0
147
0.0
147
0.0
147
0.0
147
0.0
147
1.0
  0
MLEADERSTYLE
  5
67
102
{ACAD_REACTORS
330
66
102
}
330
66
100
AcDbMLeaderStyle
170
     2
171
     1
172
     0
 90
        2
 40
0.0
 41
0.0
173
     1
 91
-1056964608
340
5B
 92
       -2
290
     1
 42
0.09
291
     1
 43
0.36
  3
Standard
 44
0.18
300

342
55
174
     1
178
     6
175
     1
176
     0
 93
-1056964608
 45
0.18
292
     0
297
     0
 46
0.18
 94
-1056964608
 47
1.0
 49
1.0
140
1.0
293
     1
141
0.0
294
     1
177
     0
142
1.0
295
     0
296
     0
143
0.125
1001
ACAD_MLEADERVER
1070
     2
  0
MLINESTYLE
  5
60
102
{ACAD_REACTORS
330
5F
102
}
330
5F
100
AcDbMlineStyle
  2
STANDARD
 70
     0
  3

 62
   256
 51
90.0
 52
90.0
 71
     2
 49
0.5
 62
   256
  6
BYLAYER
 49
-0.5
 62
   256
  6
BYLAYER
  0
ACDBPLACEHOLDER
  5
F
102
{ACAD_REACTORS
330
E
102
}
330
E
  0
SCALE
  5
43
102
{ACAD_REACTORS
330
42
102
}
330
42
100
AcDbScale
 70
     0
300
1:1
140
1.0
141
1.0
290
     1
  0
SCALE
  5
44
102
{ACAD_REACTORS
330
42
102
}
330
42
100
AcDbScale
 70
     0
300
1/128" = 1'-0"
140
0.0078125
141
12.0
290
     0
  0
SCALE
  5
45
102
{ACAD_REACTORS
330
42
102
}
330
42
100
AcDbScale
 70
     0
300
1/64" = 1'-0"
140
0.015625
141
12.0
290
     0
  0
SCALE
  5
46
102
{ACAD_REACTORS
330
42
102
}
330
42
100
AcDbScale
 70
     0
300
1/32" = 1'-0"
140
0.03125
141
12.0
290
     0
  0
SCALE
  5
47
102
{ACAD_REACTORS
330
42
102
}
330
42
100
AcDbScale
 70
     0
300
1/16" = 1'-0"
140
0.0625
141
12.0
290
     0
  0
SCALE
  5
48
102
{ACAD_REACTORS
330
42
102
}
330
42
100
AcDbScale
 70
     0
300
3/32" = 1'-0"
140
0.09375
141
12.0
290
     0
  0
SCALE
  5
49
102
{ACAD_REACTORS
330
42
102
}
330
42
100
AcDbScale
 70
     0
300
1/8" = 1'-0"
140
0.125
141
12.0
290
     0
  0
SCALE
  5
4A
102
{ACAD_REACTORS
330
42
102
}
330
42
100
AcDbScale
 70
     0
300
3/16" = 1'-0"
140
0.1875
141
12.0
290
     0
  0
SCALE
  5
4B
102
{ACAD_REACTORS
330
42
102
}
330
42
100
AcDbScale
 70
     0
300
1/4" = 1'-0"
140
0.25
141
12.0
290
     0
  0
SCALE
  5
4C
102
{ACAD_REACTORS
330
42
102
}
330
42
100
AcDbScale
 70
     0
300
3/8" = 1'-0"
140
0.375
141
12.0
290
     0
  0
SCALE
  5
4D
102
{ACAD_REACTORS
330
42
102
}
330
42
100
AcDbScale
 70
     0
300
1/2" = 1'-0"
140
0.5
141
12.0
290
     0
  0
SCALE
  5
4E
102
{ACAD_REACTORS
330
42
102
}
330
42
100
AcDbScale
 70
     0
300
3/4" = 1'-0"
140
0.75
141
12.0
290
     0
  0
SCALE
  5
4F
102
{ACAD_REACTORS
330
42
102
}
330
42
100
AcDbScale
 70
     0
300
1" = 1'-0"
140
1.0
141
12.0
290
     0
  0
SCALE
  5
50
102
{ACAD_REACTORS
330
42
102
}
330
42
100
AcDbScale
 70
     0
300
1-1/2" = 1'-0"
140
1.5
141
12.0
290
     0
  0
SCALE
  5
51
102
{ACAD_REACTORS
330
42
102
}
330
42
100
AcDbScale
 70
     0
300
3" = 1'-0"
140
3.0
141
12.0
290
     0
  0
SCALE
  5
52
102
{ACAD_REACTORS
330
42
102
}
330
42
100
AcDbScale
 70
     0
300
6" = 1'-0"
140
6.0
141
12.0
290
     0
  0
SCALE
  5
53
102
{ACAD_REACTORS
330
42
102
}
330
42
100
AcDbScale
 70
     0
300
1'-0" = 1'-0"
140
12.0
141
12.0
290
     0
  0
TABLESTYLE
  5
65
102
{ACAD_XDICTIONARY
360
4A0
102
}
102
{ACAD_REACTORS
330
64
102
}
330
64
100
AcDbTableStyle
  3
Standard
 70
     0
 71
     0
 40
0.06
 41
0.06
280
     0
281
     0
  7
Standard
140
0.18
170
     2
 62
     0
 63
     7
283
     0
274
    -2
284
     1
 64
     0
275
    -2
285
     1
 65
     0
276
    -2
286
     1
 66
     0
277
    -2
287
     1
 67
     0
278
    -2
288
     1
 68
     0
279
    -2
289
     1
 69
     0
  7
Standard
140
0.25
170
     5
 62
     0
 63
     7
283
     0
274
    -2
284
     1
 64
     0
275
    -2
285
     1
 65
     0
276
    -2
286
     1
 66
     0
277
    -2
287
     1
 67
     0
278
    -2
288
     1
 68
     0
279
    -2
289
     1
 69
     0
  7
Standard
140
0.18
170
     5
 62
     0
 63
     7
283
     0
274
    -2
284
     1
 64
     0
275
    -2
285
     1
 65
     0
276
    -2
286
     1
 66
     0
277
    -2
287
     1
 67
     0
278
    -2
288
     1
 68
     0
279
    -2
289
     1
 69
     0
  0
VISUALSTYLE
  5
2F
102
{ACAD_XDICTIONARY
360
5F0
102
}
102
{ACAD_REACTORS
330
29
102
}
330
29
100
AcDbVisualStyle
  2

 70
     4
 71
     0
 72
     2
 73
     0
 90
        0
 40
-0.6
 41
-30.0
 62
     5
 63
     7
 74
     1
 91
        4
 64
     7
 65
   257
 75
     1
175
     1
 42
1.0
 92
        0
 66
   257
 43
1.0
 76
     1
 77
     6
 78
     2
 67
     7
 79
     5
170
     0
171
     0
290
     0
174
     0
 93
        1
 44
0.0
173
     0
291
     0
 45
0.0
1001
ACAD
1000
AcDbSavedByObjectVersion
1070
     0
  0
VISUALSTYLE
  5
2E
102
{ACAD_XDICTIONARY
360
5EE
102
}
102
{ACAD_REACTORS
330
29
102
}
330
29
100
AcDbVisualStyle
  2

 70
     7
 71
     1
 72
     0
 73
     1
 90
        0
 40
-0.6
 41
-30.0
 62
     5
 63
     7
 74
     0
 91
        4
 64
     7
 65
   257
 75
     1
175
     1
 42
1.0
 92
        8
 66
     7
 43
1.0
 76
     1
 77
     6
 78
     2
 67
     7
 79
     5
170
     0
171
     0
290
     0
174
     0
 93
        1
 44
0.0
173
     0
291
     1
 45
0.0
1001
ACAD
1000
AcDbSavedByObjectVersion
1070
     0
  0
VISUALSTYLE
  5
35
102
{ACAD_XDICTIONARY
360
5FC
102
}
102
{ACAD_REACTORS
330
29
102
}
330
29
100
AcDbVisualStyle
  2

 70
    12
 71
     2
 72
     2
 73
     0
 90
        0
 40
-0.6
 41
-30.0
 62
     5
 63
     7
 74
     1
 91
        4
 64
     7
 65
   257
 75
     1
175
     1
 42
1.0
 92
        8
 66
     7
 43
1.0
 76
     1
 77
     6
 78
     2
 67
     7
 79
     5
170
     0
171
     0
290
     0
174
     0
 93
        1
 44
50.0
173
     0
291
     1
 45
0.0
1001
ACAD
1000
AcDbSavedByObjectVersion
1070
     0
  0
VISUALSTYLE
  5
39
102
{ACAD_XDICTIONARY
360
604
102
}
102
{ACAD_REACTORS
330
29
102
}
330
29
100
AcDbVisualStyle
  2

 70
    16
 71
     2
 72
     2
 73
     3
 90
        0
 40
-0.6
 41
-30.0
 62
     5
 63
     8
 74
     1
 91
        4
 64
     7
 65
   257
 75
     1
175
     1
 42
1.0
 92
        8
 66
     8
 43
1.0
 76
     1
 77
     6
 78
     2
 67
     7
 79
     5
170
     0
171
     0
290
     0
174
     0
 93
        1
 44
0.0
173
     0
291
     1
 45
0.0
1001
ACAD
1000
AcDbSavedByObjectVersion
1070
     0
  0
VISUALSTYLE
  5
32
102
{ACAD_XDICTIONARY
360
5F6
102
}
102
{ACAD_REACTORS
330
29
102
}
330
29
100
AcDbVisualStyle
  2

 70
     9
 71
     3
 72
     2
 73
     0
 90
        0
 40
-0.6
 41
-30.0
 62
     5
 63
     7
 74
     2
 91
        2
 64
     7
 65
   257
 75
     1
175
     1
 42
179.0
 92
        8
 66
     7
 43
1.0
 76
     1
 77
     6
 78
     2
 67
     7
 79
     3
170
     0
171
     0
290
     0
174
     0
 93
        1
 44
0.0
173
     0
291
     0
 45
0.0
1001
ACAD
1000
AcDbSavedByObjectVersion
1070
     0
  0
VISUALSTYLE
  5
34
102
{ACAD_XDICTIONARY
360
5FA
102
}
102
{ACAD_REACTORS
330
29
102
}
330
29
100
AcDbVisualStyle
  2

 70
    11
 71
     2
 72
     2
 73
     0
 90
        0
 40
-0.6
 41
-30.0
 62
     5
 63
     7
 74
     1
 91
        4
 64
     7
 65
   257
 75
     1
175
     1
 42
1.0
 92
        8
 66
     7
 43
1.0
 76
     1
 77
     6
 78
     2
 67
     7
 79
     5
170
     0
171
     0
290
     0
174
     0
 93
        1
 44
-50.0
173
     0
291
     1
 45
0.0
1001
ACAD
1000
AcDbSavedByObjectVersion
1070
     0
  0
VISUALSTYLE
  5
41
102
{ACAD_XDICTIONARY
360
614
102
}
102
{ACAD_REACTORS
330
29
102
}
330
29
100
AcDbVisualStyle
  2

 70
    22
 71
     2
 72
     2
 73
     0
 90
        0
 40
-0.6
 41
-30.0
 62
     5
 63
     7
 74
     1
 91
        4
 64
     7
 65
   257
 75
     1
175
     1
 42
1.0
 92
        8
 66
     7
 43
1.0
 76
     1
 77
     6
 78
     2
 67
     7
 79
     5
170
     0
171
     0
290
     0
174
     0
 93
        1
 44
0.0
173
     0
291
     1
 45
0.0
1001
ACAD
1000
AcDbSavedByObjectVersion
1070
     0
  0
VISUALSTYLE
  5
38
102
{ACAD_XDICTIONARY
360
602
102
}
102
{ACAD_REACTORS
330
29
102
}
330
29
100
AcDbVisualStyle
  2

 70
    15
 71
     2
 72
     2
 73
     0
 90
        0
 40
-0.6
 41
-30.0
 62
     5
 63
     7
 74
     1
 91
        4
 64
     7
 65
   257
 75
     1
175
     1
 42
1.0
 92
        8
 66
     7
 43
1.0
 76
     1
 77
     6
 78
     2
 67
     7
 79
     5
170
     0
171
     0
290
     0
174
     0
 93
        1
 44
0.0
173
     0
291
     1
 45
0.0
1001
ACAD
1000
AcDbSavedByObjectVersion
1070
     0
  0
VISUALSTYLE
  5
2A
102
{ACAD_XDICTIONARY
360
5E6
102
}
102
{ACAD_REACTORS
330
29
102
}
330
29
100
AcDbVisualStyle
  2

 70
     0
 71
     2
 72
     1
 73
     1
 90
        2
 40
-0.6
 41
30.0
 62
     5
 63
     7
 74
     0
 91
        0
 64
     7
 65
   257
 75
     1
175
     1
 42
1.0
 92
        8
 66
     7
 43
1.0
 76
     1
 77
     6
 78
     2
 67
     7
 79
     5
170
     0
171
     0
290
     0
174
     0
 93
       13
 44
0.0
173
     0
291
     1
 45
0.0
1001
ACAD
1000
AcDbSavedByObjectVersion
1070
     0
  0
VISUALSTYLE
  5
2B
102
{ACAD_XDICTIONARY
360
5E8
102
}
102
{ACAD_REACTORS
330
29
102
}
330
29
100
AcDbVisualStyle
  2

 70
     1
 71
     2
 72
     1
 73
     1
 90
        2
 40
-0.6
 41
30.0
 62
     5
 63
     7
 74
     1
 91
        0
 64
     7
 65
   257
 75
     1
175
     1
 42
1.0
 92
        0
 66
   257
 43
1.0
 76
     1
 77
     6
 78
     2
 67
     7
 79
     5
170
     0
171
     0
290
     0
174
     0
 93
       13
 44
0.0
173
     0
291
     1
 45
0.0
1001
ACAD
1000
AcDbSavedByObjectVersion
1070
     0
  0
VISUALSTYLE
  5
2C
102
{ACAD_XDICTIONARY
360
5EA
102
}
102
{ACAD_REACTORS
330
29
102
}
330
29
100
AcDbVisualStyle
  2

 70
     2
 71
     2
 72
     2
 73
     1
 90
        2
 40
-0.6
 41
30.0
 62
     5
 63
     7
 74
     0
 91
        0
 64
     7
 65
   257
 75
     1
175
     1
 42
1.0
 92
        0
 66
     7
 43
1.0
 76
     1
 77
     6
 78
     2
 67
     7
 79
     5
170
     0
171
     0
290
     0
174
     0
 93
       13
 44
0.0
173
     0
291
     1
 45
0.0
1001
ACAD
1000
AcDbSavedByObjectVersion
1070
     0
  0
VISUALSTYLE
  5
2D
102
{ACAD_XDICTIONARY
360
5EC
102
}
102
{ACAD_REACTORS
330
29
102
}
330
29
100
AcDbVisualStyle
  2

 70
     3
 71
     2
 72
     2
 73
     1
 90
        2
 40
-0.6
 41
30.0
 62
     5
 63
     7
 74
     1
 91
        0
 64
     7
 65
   257
 75
     1
175
     1
 42
1.0
 92
        0
 66
   257
 43
1.0
 76
     1
 77
     6
 78
     2
 67
     7
 79
     5
170
     0
171
     0
290
     0
174
     0
 93
       13
 44
0.0
173
     0
291
     1
 45
0.0
1001
ACAD
1000
AcDbSavedByObjectVersion
1070
     0
  0
VISUALSTYLE
  5
31
102
{ACAD_XDICTIONARY
360
5F4
102
}
102
{ACAD_REACTORS
330
29
102
}
330
29
100
AcDbVisualStyle
  2

 70
     6
 71
     1
 72
     2
 73
     2
 90
        0
 40
-0.6
 41
-30.0
 62
     5
 63
     7
 74
     2
 91
        2
 64
     7
 65
   257
 75
     2
175
     1
 42
40.0
 92
        0
 66
   257
 43
1.0
 76
     1
 77
     6
 78
     2
 67
     7
 79
     3
170
     0
171
     0
290
     0
174
     0
 93
        1
 44
0.0
173
     0
291
     0
 45
0.0
1001
ACAD
1000
AcDbSavedByObjectVersion
1070
     0
  0
VISUALSTYLE
  5
3F
102
{ACAD_XDICTIONARY
360
610
102
}
102
{ACAD_REACTORS
330
29
102
}
330
29
100
AcDbVisualStyle
  2

 70
    20
 71
     2
 72
     2
 73
     0
 90
        0
 40
-0.6
 41
-30.0
 62
     5
 63
     7
 74
     1
 91
        4
 64
     7
 65
   257
 75
     1
175
     1
 42
1.0
 92
       10
 66
     7
 43
1.0
 76
     1
 77
     6
 78
     2
 67
     7
 79
     5
170
     0
171
     0
290
     0
174
     0
 93
        1
 44
0.0
173
     0
291
     1
 45
0.0
1001
ACAD
1000
AcDbSavedByObjectVersion
1070
     0
  0
VISUALSTYLE
  5
37
102
{ACAD_XDICTIONARY
360
600
102
}
102
{ACAD_REACTORS
330
29
102
}
330
29
100
AcDbVisualStyle
  2

 70
    14
 71
     2
 72
     2
 73
     0
 90
        0
 40
-0.6
 41
-30.0
 62
     5
 63
     7
 74
     1
 91
        4
 64
     7
 65
   257
 75
     7
175
     7
 42
1.0
 92
        8
 66
     7
 43
1.0
 76
     1
 77
     6
 78
     2
 67
     7
 79
     5
170
     0
171
     0
290
     0
174
     0
 93
        1
 44
0.0
173
     0
291
     1
 45
0.0
1001
ACAD
1000
AcDbSavedByObjectVersion
1070
     0
  0
VISUALSTYLE
  5
40
102
{ACAD_XDICTIONARY
360
612
102
}
102
{ACAD_REACTORS
330
29
102
}
330
29
100
AcDbVisualStyle
  2

 70
    21
 71
     2
 72
     2
 73
     0
 90
        0
 40
-0.6
 41
-30.0
 62
     5
 63
     7
 74
     1
 91
        4
 64
     7
 65
   257
 75
     1
175
     1
 42
1.0
 92
        9
 66
     7
 43
1.0
 76
     1
 77
     6
 78
     2
 67
     7
 79
     5
170
     0
171
     0
290
     0
174
     0
 93
        1
 44
0.0
173
     0
291
     1
 45
0.0
1001
ACAD
1000
AcDbSavedByObjectVersion
1070
     0
  0
VISUALSTYLE
  5
33
102
{ACAD_XDICTIONARY
360
5F8
102
}
102
{ACAD_REACTORS
330
29
102
}
330
29
100
AcDbVisualStyle
  2

 70
     8
 71
     2
 72
     2
 73
     0
 90
        2
 40
-0.6
 41
30.0
 62
     5
 63
     7
 74
     0
 91
        0
 64
     7
 65
   257
 75
     1
175
     1
 42
1.0
 92
        8
 66
   257
 43
1.0
 76
     1
 77
     6
 78
     2
 67
     7
 79
     3
170
     0
171
     0
290
     0
174
     0
 93
       13
 44
0.0
173
     0
291
     0
 45
0.0
1001
ACAD
1000
AcDbSavedByObjectVersion
1070
     0
  0
VISUALSTYLE
  5
3E
102
{ACAD_XDICTIONARY
360
60E
102
}
102
{ACAD_REACTORS
330
29
102
}
330
29
100
AcDbVisualStyle
  2

 70
    27
 71
     2
 72
     2
 73
     1
 90
        2
 40
-0.6
 41
30.0
 62
     5
 63
     7
 74
     0
 91
        4
 64
     7
 65
   257
 75
     1
175
     1
 42
1.0
 92
        8
 66
   257
 43
1.0
 76
     1
 77
     6
 78
     2
 67
     8
 79
     3
170
     0
171
     0
290
     0
174
     0
 93
        5
 44
0.0
173
     0
291
     0
 45
0.0
1001
ACAD
1000
AcDbSavedByObjectVersion
1070
     0
  0
VISUALSTYLE
  5
3D
102
{ACAD_XDICTIONARY
360
60C
102
}
102
{ACAD_REACTORS
330
29
102
}
330
29
100
AcDbVisualStyle
  2

 70
    26
 71
     2
 72
     2
 73
     1
 90
        2
 40
-0.6
 41
30.0
 62
     5
 63
     7
 74
     1
 91
       10
 64
     7
 65
   257
 75
     2
175
     1
 42
1.0
 92
        8
 66
   257
 43
1.0
 76
     1
 77
     6
 78
     2
 67
     7
 79
     3
170
     0
171
     0
290
     0
174
     0
 93
        5
 44
0.0
173
     0
291
     0
 45
0.0
1001
ACAD
1000
AcDbSavedByObjectVersion
1070
     0
  0
VISUALSTYLE
  5
3A
102
{ACAD_XDICTIONARY
360
606
102
}
102
{ACAD_REACTORS
330
29
102
}
330
29
100
AcDbVisualStyle
  2

 70
    23
 71
     2
 72
     2
 73
     3
 90
        0
 40
-0.6
 41
-30.0
 62
     5
 63
     7
 74
     2
 91
        2
 64
     7
 65
     7
 75
     1
175
     1
 42
40.0
 92
        8
 66
     7
 43
1.0
 76
     1
 77
     6
 78
     2
 67
     7
 79
     3
170
     0
171
     0
290
     0
174
     0
 93
        1
 44
0.0
173
     0
291
     0
 45
0.0
1001
ACAD
1000
AcDbSavedByObjectVersion
1070
     0
  0
VISUALSTYLE
  5
3B
102
{ACAD_XDICTIONARY
360
608
102
}
102
{ACAD_REACTORS
330
29
102
}
330
29
100
AcDbVisualStyle
  2

 70
    24
 71
     1
 72
     2
 73
     2
 90
        0
 40
-0.6
 41
-30.0
 62
     5
 63
     7
 74
     2
 91
        2
 64
     7
 65
     7
 75
     1
175
     1
 42
40.0
 92
       11
 66
     7
 43
1.0
 76
     1
 77
     6
 78
     2
 67
     7
 79
     6
170
     0
171
     0
290
     0
174
     0
 93
        1
 44
0.0
173
     0
291
     0
 45
0.0
1001
ACAD
1000
AcDbSavedByObjectVersion
1070
     0
  0
VISUALSTYLE
  5
36
102
{ACAD_XDICTIONARY
360
5FE
102
}
102
{ACAD_REACTORS
330
29
102
}
330
29
100
AcDbVisualStyle
  2

 70
    13
 71
     2
 72
     2
 73
     0
 90
        0
 40
-0.6
 41
-30.0
 62
     5
 63
     7
 74
     1
 91
        4
 64
     7
 65
   257
 75
     1
175
     1
 42
1.0
 92
       12
 66
     7
 43
1.0
 76
     1
 77
     6
 78
     2
 67
     7
 79
     5
170
     0
171
     0
290
     0
174
     0
 93
        1
 44
0.0
173
     0
291
     1
 45
0.0
1001
ACAD
1000
AcDbSavedByObjectVersion
1070
     0
  0
VISUALSTYLE
  5
30
102
{ACAD_XDICTIONARY
360
5F2
102
}
102
{ACAD_REACTORS
330
29
102
}
330
29
100
AcDbVisualStyle
  2

 70
     5
 71
     0
 72
     2
 73
     0
 90
        0
 40
-0.6
 41
-30.0
 62
     5
 63
     7
 74
     1
 91
        4
 64
     7
 65
   257
 75
     1
175
     1
 42
1.0
 92
        0
 66
   257
 43
1.0
 76
     1
 77
     6
 78
     2
 67
     7
 79
     3
170
     0
171
     0
290
     0
174
     0
 93
        1
 44
0.0
173
     0
291
     0
 45
0.0
1001
ACAD
1000
AcDbSavedByObjectVersion
1070
     0
  0
VISUALSTYLE
  5
3C
102
{ACAD_XDICTIONARY
360
60A
102
}
102
{ACAD_REACTORS
330
29
102
}
330
29
100
AcDbVisualStyle
  2

 70
    25
 71
     2
 72
     2
 73
     1
 90
        1
 40
0.5
 41
-30.0
 62
     5
 63
     7
 74
     1
 91
        0
 64
     7
 65
   257
 75
     1
175
     1
 42
1.0
 92
        8
 66
     7
 43
1.0
 76
     1
 77
     6
 78
     2
 67
     7
 79
     3
170
     0
171
     0
290
     0
174
     0
 93
       13
 44
0.0
173
     0
291
     0
 45
0.0
1001
ACAD
1000
AcDbSavedByObjectVersion
1070
     0
  0
DICTIONARYVAR
  5
4E6
102
{ACAD_REACTORS
330
4E2
102
}
330
4E2
100
DictionaryVariables
280
     0
  1
1:1
  0
DICTIONARYVAR
  5
4E4
102
{ACAD_REACTORS
330
4E2
102
}
330
4E2
100
DictionaryVariables
280
     0
  1
STANDARD
  0
DICTIONARYVAR
  5
4E3
102
{ACAD_REACTORS
330
4E2
102
}
330
4E2
100
DictionaryVariables
280
     0
  1
STANDARD
  0
DICTIONARYVAR
  5
4ED
102
{ACAD_REACTORS
330
4E2
102
}
330
4E2
100
DictionaryVariables
280
     0
  1
2
  0
DICTIONARYVAR
  5
4EC
102
{ACAD_REACTORS
330
4E2
102
}
330
4E2
100
DictionaryVariables
280
     0
  1
1
  0
DICTIONARYVAR
  5
4EB
102
{ACAD_REACTORS
330
4E2
102
}
330
4E2
100
DictionaryVariables
280
     0
  1
0
  0
DICTIONARYVAR
  5
4E8
102
{ACAD_REACTORS
330
4E2
102
}
330
4E2
100
DictionaryVariables
280
     0
  1
0
  0
DICTIONARYVAR
  5
4E9
102
{ACAD_REACTORS
330
4E2
102
}
330
4E2
100
DictionaryVariables
280
     0
  1
0
  0
DICTIONARYVAR
  5
4E7
102
{ACAD_REACTORS
330
4E2
102
}
330
4E2
100
DictionaryVariables
280
     0
  1
2
  0
DICTIONARYVAR
  5
4E5
102
{ACAD_REACTORS
330
4E2
102
}
330
4E2
100
DictionaryVariables
280
     0
  1
1
  0
DICTIONARYVAR
  5
4EA
102
{ACAD_REACTORS
330
4E2
102
}
330
4E2
100
DictionaryVariables
280
     0
  1
127
  0
DICTIONARYVAR
  5
5E0
102
{ACAD_REACTORS
330
4E2
102
}
330
4E2
100
DictionaryVariables
280
     0
  1
2
  0
DICTIONARY
  5
619
330
6F
100
AcDbDictionary
280
     1
281
     1
  3
ACAD_XREC_ROUNDTRIP
360
61A
  0
DICTIONARY
  5
617
330
6B
100
AcDbDictionary
280
     1
281
     1
  3
ACAD_XREC_ROUNDTRIP
360
618
  0
DICTIONARY
  5
61B
330
73
100
AcDbDictionary
280
     1
281
     1
  3
ACAD_XREC_ROUNDTRIP
360
61C
  0
DICTIONARY
  5
1A
330
19
100
AcDbDictionary
280
     1
281
     1
  3
ACAD_XREC_ROUNDTRIP
360
4FE
  3
BUMPTILE
360
1C
  3
DIFFUSETILE
360
1B
  3
OPACITYTILE
360
1F
  3
REFLECTIONTILE
360
1E
  3
REFRACTIONTILE
360
20
  3
SPECULARTILE
360
1D
  0
DICTIONARY
  5
12
330
11
100
AcDbDictionary
280
     1
281
     1
  3
ACAD_XREC_ROUNDTRIP
360
4FD
  3
BUMPTILE
360
14
  3
DIFFUSETILE
360
13
  3
OPACITYTILE
360
17
  3
REFLECTIONTILE
360
16
  3
REFRACTIONTILE
360
18
  3
SPECULARTILE
360
15
  0
DICTIONARY
  5
22
330
21
100
AcDbDictionary
280
     1
281
     1
  3
ACAD_XREC_ROUNDTRIP
360
4FF
  3
BUMPTILE
360
24
  3
DIFFUSETILE
360
23
  3
OPACITYTILE
360
27
  3
REFLECTIONTILE
360
26
  3
REFRACTIONTILE
360
28
  3
SPECULARTILE
360
25
  0
DICTIONARY
  5
4A0
330
65
100
AcDbDictionary
280
     1
281
     1
  3
ACAD_ROUNDTRIP_2008_TABLESTYLE_CELLSTYLEMAP
360
5E1
  3
ACAD_XREC_ROUNDTRIP
360
616
  0
DICTIONARY
  5
5F0
330
2F
100
AcDbDictionary
280
     1
281
     1
  3
ACAD_XREC_ROUNDTRIP
360
5F1
  0
DICTIONARY
  5
5EE
330
2E
100
AcDbDictionary
280
     1
281
     1
  3
ACAD_XREC_ROUNDTRIP
360
5EF
  0
DICTIONARY
  5
5FC
330
35
100
AcDbDictionary
280
     1
281
     1
  3
ACAD_XREC_ROUNDTRIP
360
5FD
  0
DICTIONARY
  5
604
330
39
100
AcDbDictionary
280
     1
281
     1
  3
ACAD_XREC_ROUNDTRIP
360
605
  0
DICTIONARY
  5
5F6
330
32
100
AcDbDictionary
280
     1
281
     1
  3
ACAD_XREC_ROUNDTRIP
360
5F7
  0
DICTIONARY
  5
5FA
330
34
100
AcDbDictionary
280
     1
281
     1
  3
ACAD_XREC_ROUNDTRIP
360
5FB
  0
DICTIONARY
  5
614
330
41
100
AcDbDictionary
280
     1
281
     1
  3
ACAD_XREC_ROUNDTRIP
360
615
  0
DICTIONARY
  5
602
330
38
100
AcDbDictionary
280
     1
281
     1
  3
ACAD_XREC_ROUNDTRIP
360
603
  0
DICTIONARY
  5
5E6
330
2A
100
AcDbDictionary
280
     1
281
     1
  3
ACAD_XREC_ROUNDTRIP
360
5E7
  0
DICTIONARY
  5
5E8
330
2B
100
AcDbDictionary
280
     1
281
     1
  3
ACAD_XREC_ROUNDTRIP
360
5E9
  0
DICTIONARY
  5
5EA
330
2C
100
AcDbDictionary
280
     1
281
     1
  3
ACAD_XREC_ROUNDTRIP
360
5EB
  0
DICTIONARY
  5
5EC
330
2D
100
AcDbDictionary
280
     1
281
     1
  3
ACAD_XREC_ROUNDTRIP
360
5ED
  0
DICTIONARY
  5
5F4
330
31
100
AcDbDictionary
280
     1
281
     1
  3
ACAD_XREC_ROUNDTRIP
360
5F5
  0
DICTIONARY
  5
610
330
3F
100
AcDbDictionary
280
     1
281
     1
  3
ACAD_XREC_ROUNDTRIP
360
611
  0
DICTIONARY
  5
600
330
37
100
AcDbDictionary
280
     1
281
     1
  3
ACAD_XREC_ROUNDTRIP
360
601
  0
DICTIONARY
  5
612
330
40
100
AcDbDictionary
280
     1
281
     1
  3
ACAD_XREC_ROUNDTRIP
360
613
  0
DICTIONARY
  5
5F8
330
33
100
AcDbDictionary
280
     1
281
     1
  3
ACAD_XREC_ROUNDTRIP
360
5F9
  0
DICTIONARY
  5
60E
330
3E
100
AcDbDictionary
280
     1
281
     1
  3
ACAD_XREC_ROUNDTRIP
360
60F
  0
DICTIONARY
  5
60C
330
3D
100
AcDbDictionary
280
     1
281
     1
  3
ACAD_XREC_ROUNDTRIP
360
60D
  0
DICTIONARY
  5
606
330
3A
100
AcDbDictionary
280
     1
281
     1
  3
ACAD_XREC_ROUNDTRIP
360
607
  0
DICTIONARY
  5
608
330
3B
100
AcDbDictionary
280
     1
281
     1
  3
ACAD_XREC_ROUNDTRIP
360
609
  0
DICTIONARY
  5
5FE
330
36
100
AcDbDictionary
280
     1
281
     1
  3
ACAD_XREC_ROUNDTRIP
360
5FF
  0
DICTIONARY
  5
5F2
330
30
100
AcDbDictionary
280
     1
281
     1
  3
ACAD_XREC_ROUNDTRIP
360
5F3
  0
DICTIONARY
  5
60A
330
3C
100
AcDbDictionary
280
     1
281
     1
  3
ACAD_XREC_ROUNDTRIP
360
60B
  0
XRECORD
  5
61A
102
{ACAD_REACTORS
330
619
102
}
330
619
100
AcDbXrecord
280
     1
102
SHADEPLOT
 70
     0
102
SHADEPLOTRESLEVEL
 70
     2
102
SHADEPLOTCUSTOMDPI
 70
   300
  0
XRECORD
  5
618
102
{ACAD_REACTORS
330
617
102
}
330
617
100
AcDbXrecord
280
     1
102
SHADEPLOT
 70
     0
102
SHADEPLOTRESLEVEL
 70
     2
102
SHADEPLOTCUSTOMDPI
 70
   300
  0
XRECORD
  5
61C
102
{ACAD_REACTORS
330
61B
102
}
330
61B
100
AcDbXrecord
280
     1
102
SHADEPLOT
 70
     0
102
SHADEPLOTRESLEVEL
 70
     2
102
SHADEPLOTCUSTOMDPI
 70
   300
  0
XRECORD
  5
4FE
102
{ACAD_REACTORS
330
1A
102
}
330
1A
100
AcDbXrecord
280
     1
102
MATERIAL
148
0.0
149
0.0
149
0.0
 93
        0
 94
      127
282
     0
 72
     0
 77
     0
171
     0
175
     0
179
     0
273
     0
  0
XRECORD
  5
1C
102
{ACAD_REACTORS
330
1A
102
}
330
1A
100
AcDbXrecord
280
     1
270
     1
271
     1
  0
XRECORD
  5
1B
102
{ACAD_REACTORS
330
1A
102
}
330
1A
100
AcDbXrecord
280
     1
270
     1
271
     1
  0
XRECORD
  5
1F
102
{ACAD_REACTORS
330
1A
102
}
330
1A
100
AcDbXrecord
280
     1
270
     1
271
     1
  0
XRECORD
  5
1E
102
{ACAD_REACTORS
330
1A
102
}
330
1A
100
AcDbXrecord
280
     1
270
     1
271
     1
  0
XRECORD
  5
20
102
{ACAD_REACTORS
330
1A
102
}
330
1A
100
AcDbXrecord
280
     1
270
     1
271
     1
  0
XRECORD
  5
1D
102
{ACAD_REACTORS
330
1A
102
}
330
1A
100
AcDbXrecord
280
     1
270
     1
271
     1
  0
XRECORD
  5
4FD
102
{ACAD_REACTORS
330
12
102
}
330
12
100
AcDbXrecord
280
     1
102
MATERIAL
148
0.0
149
0.0
149
0.0
 93
        0
 94
      127
282
     0
 72
     0
 77
     0
171
     0
175
     0
179
     0
273
     0
  0
XRECORD
  5
14
102
{ACAD_REACTORS
330
12
102
}
330
12
100
AcDbXrecord
280
     1
270
     1
271
     1
  0
XRECORD
  5
13
102
{ACAD_REACTORS
330
12
102
}
330
12
100
AcDbXrecord
280
     1
270
     1
271
     1
  0
XRECORD
  5
17
102
{ACAD_REACTORS
330
12
102
}
330
12
100
AcDbXrecord
280
     1
270
     1
271
     1
  0
XRECORD
  5
16
102
{ACAD_REACTORS
330
12
102
}
330
12
100
AcDbXrecord
280
     1
270
     1
271
     1
  0
XRECORD
  5
18
102
{ACAD_REACTORS
330
12
102
}
330
12
100
AcDbXrecord
280
     1
270
     1
271
     1
  0
XRECORD
  5
15
102
{ACAD_REACTORS
330
12
102
}
330
12
100
AcDbXrecord
280
     1
270
     1
271
     1
  0
XRECORD
  5
4FF
102
{ACAD_REACTORS
330
22
102
}
330
22
100
AcDbXrecord
280
     1
102
MATERIAL
148
0.0
149
0.0
149
0.0
 93
        0
 94
      127
282
     0
 72
     0
 77
     0
171
     0
175
     0
179
     0
273
     0
  0
XRECORD
  5
24
102
{ACAD_REACTORS
330
22
102
}
330
22
100
AcDbXrecord
280
     1
270
     1
271
     1
  0
XRECORD
  5
23
102
{ACAD_REACTORS
330
22
102
}
330
22
100
AcDbXrecord
280
     1
270
     1
271
     1
  0
XRECORD
  5
27
102
{ACAD_REACTORS
330
22
102
}
330
22
100
AcDbXrecord
280
     1
270
     1
271
     1
  0
XRECORD
  5
26
102
{ACAD_REACTORS
330
22
102
}
330
22
100
AcDbXrecord
280
     1
270
     1
271
     1
  0
XRECORD
  5
28
102
{ACAD_REACTORS
330
22
102
}
330
22
100
AcDbXrecord
280
     1
270
     1
271
     1
  0
XRECORD
  5
25
102
{ACAD_REACTORS
330
22
102
}
330
22
100
AcDbXrecord
280
     1
270
     1
271
     1
  0
CELLSTYLEMAP
  5
5E1
102
{ACAD_REACTORS
330
4A0
102
}
330
4A0
100
AcDbCellStyleMap
 90
        3
300
CELLSTYLE
  1
TABLEFORMAT_BEGIN
 90
        5
170
     1
 91
        0
 92
    32768
 62
   257
 93
        1
300
CONTENTFORMAT
  1
CONTENTFORMAT_BEGIN
 90
        0
 91
        0
 92
      512
 93
        0
300

 40
0.0
140
1.0
 94
        5
 62
     0
340
55
144
0.25
309
CONTENTFORMAT_END
171
     1
301
MARGIN
  1
CELLMARGIN_BEGIN
 40
0.06
 40
0.06
 40
0.06
 40
0.06
 40
0.18
 40
0.18
309
CELLMARGIN_END
 94
        6
 95
        1
302
GRIDFORMAT
  1
GRIDFORMAT_BEGIN
 90
        0
 91
        1
 62
     0
 92
       -2
340
0
 93
        0
 40
0.045
309
GRIDFORMAT_END
 95
        2
302
GRIDFORMAT
  1
GRIDFORMAT_BEGIN
 90
        0
 91
        1
 62
     0
 92
       -2
340
0
 93
        0
 40
0.045
309
GRIDFORMAT_END
 95
        4
302
GRIDFORMAT
  1
GRIDFORMAT_BEGIN
 90
        0
 91
        1
 62
     0
 92
       -2
340
0
 93
        0
 40
0.045
309
GRIDFORMAT_END
 95
        8
302
GRIDFORMAT
  1
GRIDFORMAT_BEGIN
 90
        0
 91
        1
 62
     0
 92
       -2
340
0
 93
        0
 40
0.045
309
GRIDFORMAT_END
 95
       16
302
GRIDFORMAT
  1
GRIDFORMAT_BEGIN
 90
        0
 91
        1
 62
     0
 92
       -2
340
0
 93
        0
 40
0.045
309
GRIDFORMAT_END
 95
       32
302
GRIDFORMAT
  1
GRIDFORMAT_BEGIN
 90
        0
 91
        1
 62
     0
 92
       -2
340
0
 93
        0
 40
0.045
309
GRIDFORMAT_END
309
TABLEFORMAT_END
  1
CELLSTYLE_BEGIN
 90
        1
 91
        1
300
_TITLE
309
CELLSTYLE_END
300
CELLSTYLE
  1
TABLEFORMAT_BEGIN
 90
        5
170
     1
 91
        0
 92
        0
 62
   257
 93
        1
300
CONTENTFORMAT
  1
CONTENTFORMAT_BEGIN
 90
        0
 91
        0
 92
      512
 93
        0
300

 40
0.0
140
1.0
 94
        5
 62
     0
340
55
144
0.18
309
CONTENTFORMAT_END
171
     1
301
MARGIN
  1
CELLMARGIN_BEGIN
 40
0.06
 40
0.06
 40
0.06
 40
0.06
 40
0.18
 40
0.18
309
CELLMARGIN_END
 94
        6
 95
        1
302
GRIDFORMAT
  1
GRIDFORMAT_BEGIN
 90
        0
 91
        1
 62
     0
 92
       -2
340
0
 93
        0
 40
0.045
309
GRIDFORMAT_END
 95
        2
302
GRIDFORMAT
  1
GRIDFORMAT_BEGIN
 90
        0
 91
        1
 62
     0
 92
       -2
340
0
 93
        0
 40
0.045
309
GRIDFORMAT_END
 95
        4
302
GRIDFORMAT
  1
GRIDFORMAT_BEGIN
 90
        0
 91
        1
 62
     0
 92
       -2
340
0
 93
        0
 40
0.045
309
GRIDFORMAT_END
 95
        8
302
GRIDFORMAT
  1
GRIDFORMAT_BEGIN
 90
        0
 91
        1
 62
     0
 92
       -2
340
0
 93
        0
 40
0.045
309
GRIDFORMAT_END
 95
       16
302
GRIDFORMAT
  1
GRIDFORMAT_BEGIN
 90
        0
 91
        1
 62
     0
 92
       -2
340
0
 93
        0
 40
0.045
309
GRIDFORMAT_END
 95
       32
302
GRIDFORMAT
  1
GRIDFORMAT_BEGIN
 90
        0
 91
        1
 62
     0
 92
       -2
340
0
 93
        0
 40
0.045
309
GRIDFORMAT_END
309
TABLEFORMAT_END
  1
CELLSTYLE_BEGIN
 90
        2
 91
        1
300
_HEADER
309
CELLSTYLE_END
300
CELLSTYLE
  1
TABLEFORMAT_BEGIN
 90
        5
170
     1
 91
        0
 92
        0
 62
   257
 93
        1
300
CONTENTFORMAT
  1
CONTENTFORMAT_BEGIN
 90
        0
 91
        0
 92
      512
 93
        0
300

 40
0.0
140
1.0
 94
        2
 62
     0
340
55
144
0.18
309
CONTENTFORMAT_END
171
     1
301
MARGIN
  1
CELLMARGIN_BEGIN
 40
0.06
 40
0.06
 40
0.06
 40
0.06
 40
0.18
 40
0.18
309
CELLMARGIN_END
 94
        6
 95
        1
302
GRIDFORMAT
  1
GRIDFORMAT_BEGIN
 90
        0
 91
        1
 62
     0
 92
       -2
340
0
 93
        0
 40
0.045
309
GRIDFORMAT_END
 95
        2
302
GRIDFORMAT
  1
GRIDFORMAT_BEGIN
 90
        0
 91
        1
 62
     0
 92
       -2
340
0
 93
        0
 40
0.045
309
GRIDFORMAT_END
 95
        4
302
GRIDFORMAT
  1
GRIDFORMAT_BEGIN
 90
        0
 91
        1
 62
     0
 92
       -2
340
0
 93
        0
 40
0.045
309
GRIDFORMAT_END
 95
        8
302
GRIDFORMAT
  1
GRIDFORMAT_BEGIN
 90
        0
 91
        1
 62
     0
 92
       -2
340
0
 93
        0
 40
0.045
309
GRIDFORMAT_END
 95
       16
302
GRIDFORMAT
  1
GRIDFORMAT_BEGIN
 90
        0
 91
        1
 62
     0
 92
       -2
340
0
 93
        0
 40
0.045
309
GRIDFORMAT_END
 95
       32
302
GRIDFORMAT
  1
GRIDFORMAT_BEGIN
 90
        0
 91
        1
 62
     0
 92
       -2
340
0
 93
        0
 40
0.045
309
GRIDFORMAT_END
309
TABLEFORMAT_END
  1
CELLSTYLE_BEGIN
 90
        3
 91
        2
300
_DATA
309
CELLSTYLE_END
  0
XRECORD
  5
616
102
{ACAD_REACTORS
330
4A0
102
}
330
4A0
100
AcDbXrecord
280
     1
102
ACAD_ROUNDTRIP_PRE2007_TABLESTYLE
 90
      512
 91
        0
  1

 92
      512
 93
        0
  2

 94
      512
 95
        0
  3

  0
XRECORD
  5
5F1
102
{ACAD_REACTORS
330
5F0
102
}
330
5F0
100
AcDbXrecord
280
     1
102
RTVSPropertyOp0
 70
     1
102
RTVSPropertyOp1
 70
     1
102
RTVSPropertyOp2
 70
     1
102
RTVSPropertyOp3
 70
     1
102
RTVSPropertyOp4
 70
     1
102
RTVSPropertyOp5
 70
     1
102
RTVSPropertyOp6
 70
     1
102
RTVSPropertyOp7
 70
     1
102
RTVSPropertyOp8
 70
     1
102
RTVSPropertyOp9
 70
     1
102
RTVSPropertyOp10
 70
     1
102
RTVSPropertyOp11
 70
     1
102
RTVSPropertyOp12
 70
     1
102
RTVSPropertyOp13
 70
     1
102
RTVSPropertyOp14
 70
     1
102
RTVSPropertyOp15
 70
     1
102
RTVSPropertyOp16
 70
     1
102
RTVSPropertyOp17
 70
     1
102
RTVSPropertyOp18
 70
     1
102
RTVSPropertyOp19
 70
     1
102
RTVSPropertyOp20
 70
     1
102
RTVSPropertyOp21
 70
     1
102
RTVSPropertyOp22
 70
     1
102
RTVSPropertyOp23
 70
     1
102
RTVSPropertyOp24
 70
     1
102
RTVSPropertyOp25
 70
     1
102
RTVSPropertyOp26
 70
     1
102
RTVSPropertyOp27
 70
     1
102
RTVSPropertyOp28
 70
     1
102
RTVSPropertyOp29
 70
     1
102
RTVSPropertyOp30
 70
     1
102
RTVSPropertyOp31
 70
     1
102
RTVSPropertyOp32
 70
     1
  0
XRECORD
  5
5EF
102
{ACAD_REACTORS
330
5EE
102
}
330
5EE
100
AcDbXrecord
280
     1
102
RTVSPropertyOp0
 70
     1
102
RTVSPropertyOp1
 70
     1
102
RTVSPropertyOp2
 70
     1
102
RTVSPropertyOp3
 70
     1
102
RTVSPropertyOp4
 70
     1
102
RTVSPropertyOp5
 70
     1
102
RTVSPropertyOp6
 70
     1
102
RTVSPropertyOp7
 70
     1
102
RTVSPropertyOp8
 70
     1
102
RTVSPropertyOp9
 70
     1
102
RTVSPropertyOp10
 70
     1
102
RTVSPropertyOp11
 70
     1
102
RTVSPropertyOp12
 70
     1
102
RTVSPropertyOp13
 70
     1
102
RTVSPropertyOp14
 70
     1
102
RTVSPropertyOp15
 70
     1
102
RTVSPropertyOp16
 70
     1
102
RTVSPropertyOp17
 70
     1
102
RTVSPropertyOp18
 70
     1
102
RTVSPropertyOp19
 70
     1
102
RTVSPropertyOp20
 70
     1
102
RTVSPropertyOp21
 70
     1
102
RTVSPropertyOp22
 70
     1
102
RTVSPropertyOp23
 70
     1
102
RTVSPropertyOp24
 70
     1
102
RTVSPropertyOp25
 70
     1
102
RTVSPropertyOp26
 70
     1
102
RTVSPropertyOp27
 70
     1
102
RTVSPropertyOp28
 70
     1
102
RTVSPropertyOp29
 70
     1
102
RTVSPropertyOp30
 70
     1
102
RTVSPropertyOp31
 70
     1
102
RTVSPropertyOp32
 70
     1
  0
XRECORD
  5
5FD
102
{ACAD_REACTORS
330
5FC
102
}
330
5FC
100
AcDbXrecord
280
     1
102
RTVSPropertyOp0
 70
     1
102
RTVSPropertyOp1
 70
     1
102
RTVSPropertyOp2
 70
     1
102
RTVSPropertyOp3
 70
     1
102
RTVSPropertyOp4
 70
     1
102
RTVSPropertyOp5
 70
     1
102
RTVSPropertyOp6
 70
     1
102
RTVSPropertyOp7
 70
     1
102
RTVSPropertyOp8
 70
     1
102
RTVSPropertyOp9
 70
     1
102
RTVSPropertyOp10
 70
     1
102
RTVSPropertyOp11
 70
     1
102
RTVSPropertyOp12
 70
     1
102
RTVSPropertyOp13
 70
     1
102
RTVSPropertyOp14
 70
     1
102
RTVSPropertyOp15
 70
     1
102
RTVSPropertyOp16
 70
     1
102
RTVSPropertyOp17
 70
     1
102
RTVSPropertyOp18
 70
     1
102
RTVSPropertyOp19
 70
     1
102
RTVSPropertyOp20
 70
     1
102
RTVSPropertyOp21
 70
     1
102
RTVSPropertyOp22
 70
     1
102
RTVSPropertyOp23
 70
     1
102
RTVSPropertyOp24
 70
     1
102
RTVSPropertyOp25
 70
     1
102
RTVSPropertyOp26
 70
     1
102
RTVSPropertyOp27
 70
     1
102
RTVSPropertyOp28
 70
     1
102
RTVSPropertyOp29
 70
     1
102
RTVSPropertyOp30
 70
     1
102
RTVSPropertyOp31
 70
     1
102
RTVSPropertyOp32
 70
     1
  0
XRECORD
  5
605
102
{ACAD_REACTORS
330
604
102
}
330
604
100
AcDbXrecord
280
     1
102
RTVSPropertyOp0
 70
     1
102
RTVSPropertyOp1
 70
     1
102
RTVSPropertyOp2
 70
     1
102
RTVSPropertyOp3
 70
     1
102
RTVSPropertyOp4
 70
     1
102
RTVSPropertyOp5
 70
     1
102
RTVSPropertyOp6
 70
     1
102
RTVSPropertyOp7
 70
     1
102
RTVSPropertyOp8
 70
     1
102
RTVSPropertyOp9
 70
     1
102
RTVSPropertyOp10
 70
     1
102
RTVSPropertyOp11
 70
     1
102
RTVSPropertyOp12
 70
     1
102
RTVSPropertyOp13
 70
     1
102
RTVSPropertyOp14
 70
     1
102
RTVSPropertyOp15
 70
     1
102
RTVSPropertyOp16
 70
     1
102
RTVSPropertyOp17
 70
     1
102
RTVSPropertyOp18
 70
     1
102
RTVSPropertyOp19
 70
     1
102
RTVSPropertyOp20
 70
     1
102
RTVSPropertyOp21
 70
     1
102
RTVSPropertyOp22
 70
     1
102
RTVSPropertyOp23
 70
     1
102
RTVSPropertyOp24
 70
     1
102
RTVSPropertyOp25
 70
     1
102
RTVSPropertyOp26
 70
     1
102
RTVSPropertyOp27
 70
     1
102
RTVSPropertyOp28
 70
     1
102
RTVSPropertyOp29
 70
     1
102
RTVSPropertyOp30
 70
     1
102
RTVSPropertyOp31
 70
     1
102
RTVSPropertyOp32
 70
     1
  0
XRECORD
  5
5F7
102
{ACAD_REACTORS
330
5F6
102
}
330
5F6
100
AcDbXrecord
280
     1
102
RTVSPropertyOp0
 70
     1
102
RTVSPropertyOp1
 70
     1
102
RTVSPropertyOp2
 70
     1
102
RTVSPropertyOp3
 70
     1
102
RTVSPropertyOp4
 70
     1
102
RTVSPropertyOp5
 70
     1
102
RTVSPropertyOp6
 70
     1
102
RTVSPropertyOp7
 70
     1
102
RTVSPropertyOp8
 70
     1
102
RTVSPropertyOp9
 70
     1
102
RTVSPropertyOp10
 70
     1
102
RTVSPropertyOp11
 70
     1
102
RTVSPropertyOp12
 70
     1
102
RTVSPropertyOp13
 70
     1
102
RTVSPropertyOp14
 70
     1
102
RTVSPropertyOp15
 70
     1
102
RTVSPropertyOp16
 70
     1
102
RTVSPropertyOp17
 70
     1
102
RTVSPropertyOp18
 70
     1
102
RTVSPropertyOp19
 70
     1
102
RTVSPropertyOp20
 70
     1
102
RTVSPropertyOp21
 70
     1
102
RTVSPropertyOp22
 70
     1
102
RTVSPropertyOp23
 70
     1
102
RTVSPropertyOp24
 70
     1
102
RTVSPropertyOp25
 70
     1
102
RTVSPropertyOp26
 70
     1
102
RTVSPropertyOp27
 70
     1
102
RTVSPropertyOp28
 70
     1
102
RTVSPropertyOp29
 70
     1
102
RTVSPropertyOp30
 70
     1
102
RTVSPropertyOp31
 70
     1
102
RTVSPropertyOp32
 70
     1
  0
XRECORD
  5
5FB
102
{ACAD_REACTORS
330
5FA
102
}
330
5FA
100
AcDbXrecord
280
     1
102
RTVSPropertyOp0
 70
     1
102
RTVSPropertyOp1
 70
     1
102
RTVSPropertyOp2
 70
     1
102
RTVSPropertyOp3
 70
     1
102
RTVSPropertyOp4
 70
     1
102
RTVSPropertyOp5
 70
     1
102
RTVSPropertyOp6
 70
     1
102
RTVSPropertyOp7
 70
     1
102
RTVSPropertyOp8
 70
     1
102
RTVSPropertyOp9
 70
     1
102
RTVSPropertyOp10
 70
     1
102
RTVSPropertyOp11
 70
     1
102
RTVSPropertyOp12
 70
     1
102
RTVSPropertyOp13
 70
     1
102
RTVSPropertyOp14
 70
     1
102
RTVSPropertyOp15
 70
     1
102
RTVSPropertyOp16
 70
     1
102
RTVSPropertyOp17
 70
     1
102
RTVSPropertyOp18
 70
     1
102
RTVSPropertyOp19
 70
     1
102
RTVSPropertyOp20
 70
     1
102
RTVSPropertyOp21
 70
     1
102
RTVSPropertyOp22
 70
     1
102
RTVSPropertyOp23
 70
     1
102
RTVSPropertyOp24
 70
     1
102
RTVSPropertyOp25
 70
     1
102
RTVSPropertyOp26
 70
     1
102
RTVSPropertyOp27
 70
     1
102
RTVSPropertyOp28
 70
     1
102
RTVSPropertyOp29
 70
     1
102
RTVSPropertyOp30
 70
     1
102
RTVSPropertyOp31
 70
     1
102
RTVSPropertyOp32
 70
     1
  0
XRECORD
  5
615
102
{ACAD_REACTORS
330
614
102
}
330
614
100
AcDbXrecord
280
     1
102
RTVSPropertyOp0
 70
     0
102
RTVSPropertyOp1
 70
     0
102
RTVSPropertyOp2
 70
     0
102
RTVSPropertyOp3
 70
     0
102
RTVSPropertyOp4
 70
     0
102
RTVSPropertyOp5
 70
     0
102
RTVSPropertyOp6
 70
     0
102
RTVSPropertyOp7
 70
     0
102
RTVSPropertyOp8
 70
     0
102
RTVSPropertyOp9
 70
     0
102
RTVSPropertyOp10
 70
     0
102
RTVSPropertyOp11
 70
     0
102
RTVSPropertyOp12
 70
     0
102
RTVSPropertyOp13
 70
     0
102
RTVSPropertyOp14
 70
     2
102
RTVSPropertyOp15
 70
     0
102
RTVSPropertyOp16
 70
     0
102
RTVSPropertyOp17
 70
     0
102
RTVSPropertyOp18
 70
     0
102
RTVSPropertyOp19
 70
     0
102
RTVSPropertyOp20
 70
     0
102
RTVSPropertyOp21
 70
     0
102
RTVSPropertyOp22
 70
     0
102
RTVSPropertyOp23
 70
     0
102
RTVSPropertyOp24
 70
     0
102
RTVSPropertyOp25
 70
     0
102
RTVSPropertyOp26
 70
     0
102
RTVSPropertyOp27
 70
     0
102
RTVSPropertyOp28
 70
     0
102
RTVSPropertyOp29
 70
     0
102
RTVSPropertyOp30
 70
     0
102
RTVSPropertyOp31
 70
     0
102
RTVSPropertyOp32
 70
     0
  0
XRECORD
  5
603
102
{ACAD_REACTORS
330
602
102
}
330
602
100
AcDbXrecord
280
     1
102
RTVSPropertyOp0
 70
     1
102
RTVSPropertyOp1
 70
     1
102
RTVSPropertyOp2
 70
     1
102
RTVSPropertyOp3
 70
     1
102
RTVSPropertyOp4
 70
     1
102
RTVSPropertyOp5
 70
     1
102
RTVSPropertyOp6
 70
     1
102
RTVSPropertyOp7
 70
     1
102
RTVSPropertyOp8
 70
     1
102
RTVSPropertyOp9
 70
     1
102
RTVSPropertyOp10
 70
     1
102
RTVSPropertyOp11
 70
     1
102
RTVSPropertyOp12
 70
     1
102
RTVSPropertyOp13
 70
     1
102
RTVSPropertyOp14
 70
     1
102
RTVSPropertyOp15
 70
     1
102
RTVSPropertyOp16
 70
     1
102
RTVSPropertyOp17
 70
     1
102
RTVSPropertyOp18
 70
     1
102
RTVSPropertyOp19
 70
     1
102
RTVSPropertyOp20
 70
     1
102
RTVSPropertyOp21
 70
     1
102
RTVSPropertyOp22
 70
     1
102
RTVSPropertyOp23
 70
     1
102
RTVSPropertyOp24
 70
     1
102
RTVSPropertyOp25
 70
     1
102
RTVSPropertyOp26
 70
     1
102
RTVSPropertyOp27
 70
     1
102
RTVSPropertyOp28
 70
     1
102
RTVSPropertyOp29
 70
     1
102
RTVSPropertyOp30
 70
     1
102
RTVSPropertyOp31
 70
     1
102
RTVSPropertyOp32
 70
     1
  0
XRECORD
  5
5E7
102
{ACAD_REACTORS
330
5E6
102
}
330
5E6
100
AcDbXrecord
280
     1
102
RTVSPropertyOp0
 70
     1
102
RTVSPropertyOp1
 70
     1
102
RTVSPropertyOp2
 70
     1
102
RTVSPropertyOp3
 70
     1
102
RTVSPropertyOp4
 70
     1
102
RTVSPropertyOp5
 70
     1
102
RTVSPropertyOp6
 70
     1
102
RTVSPropertyOp7
 70
     1
102
RTVSPropertyOp8
 70
     1
102
RTVSPropertyOp9
 70
     1
102
RTVSPropertyOp10
 70
     1
102
RTVSPropertyOp11
 70
     1
102
RTVSPropertyOp12
 70
     1
102
RTVSPropertyOp13
 70
     1
102
RTVSPropertyOp14
 70
     1
102
RTVSPropertyOp15
 70
     1
102
RTVSPropertyOp16
 70
     1
102
RTVSPropertyOp17
 70
     1
102
RTVSPropertyOp18
 70
     1
102
RTVSPropertyOp19
 70
     1
102
RTVSPropertyOp20
 70
     1
102
RTVSPropertyOp21
 70
     1
102
RTVSPropertyOp22
 70
     1
102
RTVSPropertyOp23
 70
     1
102
RTVSPropertyOp24
 70
     1
102
RTVSPropertyOp25
 70
     1
102
RTVSPropertyOp26
 70
     1
102
RTVSPropertyOp27
 70
     1
102
RTVSPropertyOp28
 70
     1
102
RTVSPropertyOp29
 70
     1
102
RTVSPropertyOp30
 70
     1
102
RTVSPropertyOp31
 70
     1
102
RTVSPropertyOp32
 70
     1
  0
XRECORD
  5
5E9
102
{ACAD_REACTORS
330
5E8
102
}
330
5E8
100
AcDbXrecord
280
     1
102
RTVSPropertyOp0
 70
     1
102
RTVSPropertyOp1
 70
     1
102
RTVSPropertyOp2
 70
     1
102
RTVSPropertyOp3
 70
     1
102
RTVSPropertyOp4
 70
     1
102
RTVSPropertyOp5
 70
     1
102
RTVSPropertyOp6
 70
     1
102
RTVSPropertyOp7
 70
     1
102
RTVSPropertyOp8
 70
     1
102
RTVSPropertyOp9
 70
     1
102
RTVSPropertyOp10
 70
     1
102
RTVSPropertyOp11
 70
     1
102
RTVSPropertyOp12
 70
     1
102
RTVSPropertyOp13
 70
     1
102
RTVSPropertyOp14
 70
     1
102
RTVSPropertyOp15
 70
     1
102
RTVSPropertyOp16
 70
     1
102
RTVSPropertyOp17
 70
     1
102
RTVSPropertyOp18
 70
     1
102
RTVSPropertyOp19
 70
     1
102
RTVSPropertyOp20
 70
     1
102
RTVSPropertyOp21
 70
     1
102
RTVSPropertyOp22
 70
     1
102
RTVSPropertyOp23
 70
     1
102
RTVSPropertyOp24
 70
     1
102
RTVSPropertyOp25
 70
     1
102
RTVSPropertyOp26
 70
     1
102
RTVSPropertyOp27
 70
     1
102
RTVSPropertyOp28
 70
     1
102
RTVSPropertyOp29
 70
     1
102
RTVSPropertyOp30
 70
     1
102
RTVSPropertyOp31
 70
     1
102
RTVSPropertyOp32
 70
     1
  0
XRECORD
  5
5EB
102
{ACAD_REACTORS
330
5EA
102
}
330
5EA
100
AcDbXrecord
280
     1
102
RTVSPropertyOp0
 70
     1
102
RTVSPropertyOp1
 70
     1
102
RTVSPropertyOp2
 70
     1
102
RTVSPropertyOp3
 70
     1
102
RTVSPropertyOp4
 70
     1
102
RTVSPropertyOp5
 70
     1
102
RTVSPropertyOp6
 70
     1
102
RTVSPropertyOp7
 70
     1
102
RTVSPropertyOp8
 70
     1
102
RTVSPropertyOp9
 70
     1
102
RTVSPropertyOp10
 70
     1
102
RTVSPropertyOp11
 70
     1
102
RTVSPropertyOp12
 70
     1
102
RTVSPropertyOp13
 70
     1
102
RTVSPropertyOp14
 70
     1
102
RTVSPropertyOp15
 70
     1
102
RTVSPropertyOp16
 70
     1
102
RTVSPropertyOp17
 70
     1
102
RTVSPropertyOp18
 70
     1
102
RTVSPropertyOp19
 70
     1
102
RTVSPropertyOp20
 70
     1
102
RTVSPropertyOp21
 70
     1
102
RTVSPropertyOp22
 70
     1
102
RTVSPropertyOp23
 70
     1
102
RTVSPropertyOp24
 70
     1
102
RTVSPropertyOp25
 70
     1
102
RTVSPropertyOp26
 70
     1
102
RTVSPropertyOp27
 70
     1
102
RTVSPropertyOp28
 70
     1
102
RTVSPropertyOp29
 70
     1
102
RTVSPropertyOp30
 70
     1
102
RTVSPropertyOp31
 70
     1
102
RTVSPropertyOp32
 70
     1
  0
XRECORD
  5
5ED
102
{ACAD_REACTORS
330
5EC
102
}
330
5EC
100
AcDbXrecord
280
     1
102
RTVSPropertyOp0
 70
     1
102
RTVSPropertyOp1
 70
     1
102
RTVSPropertyOp2
 70
     1
102
RTVSPropertyOp3
 70
     1
102
RTVSPropertyOp4
 70
     1
102
RTVSPropertyOp5
 70
     1
102
RTVSPropertyOp6
 70
     1
102
RTVSPropertyOp7
 70
     1
102
RTVSPropertyOp8
 70
     1
102
RTVSPropertyOp9
 70
     1
102
RTVSPropertyOp10
 70
     1
102
RTVSPropertyOp11
 70
     1
102
RTVSPropertyOp12
 70
     1
102
RTVSPropertyOp13
 70
     1
102
RTVSPropertyOp14
 70
     1
102
RTVSPropertyOp15
 70
     1
102
RTVSPropertyOp16
 70
     1
102
RTVSPropertyOp17
 70
     1
102
RTVSPropertyOp18
 70
     1
102
RTVSPropertyOp19
 70
     1
102
RTVSPropertyOp20
 70
     1
102
RTVSPropertyOp21
 70
     1
102
RTVSPropertyOp22
 70
     1
102
RTVSPropertyOp23
 70
     1
102
RTVSPropertyOp24
 70
     1
102
RTVSPropertyOp25
 70
     1
102
RTVSPropertyOp26
 70
     1
102
RTVSPropertyOp27
 70
     1
102
RTVSPropertyOp28
 70
     1
102
RTVSPropertyOp29
 70
     1
102
RTVSPropertyOp30
 70
     1
102
RTVSPropertyOp31
 70
     1
102
RTVSPropertyOp32
 70
     1
  0
XRECORD
  5
5F5
102
{ACAD_REACTORS
330
5F4
102
}
330
5F4
100
AcDbXrecord
280
     1
102
RTVSPropertyOp0
 70
     1
102
RTVSPropertyOp1
 70
     1
102
RTVSPropertyOp2
 70
     1
102
RTVSPropertyOp3
 70
     1
102
RTVSPropertyOp4
 70
     1
102
RTVSPropertyOp5
 70
     1
102
RTVSPropertyOp6
 70
     1
102
RTVSPropertyOp7
 70
     1
102
RTVSPropertyOp8
 70
     1
102
RTVSPropertyOp9
 70
     1
102
RTVSPropertyOp10
 70
     1
102
RTVSPropertyOp11
 70
     1
102
RTVSPropertyOp12
 70
     1
102
RTVSPropertyOp13
 70
     1
102
RTVSPropertyOp14
 70
     1
102
RTVSPropertyOp15
 70
     1
102
RTVSPropertyOp16
 70
     1
102
RTVSPropertyOp17
 70
     1
102
RTVSPropertyOp18
 70
     1
102
RTVSPropertyOp19
 70
     1
102
RTVSPropertyOp20
 70
     1
102
RTVSPropertyOp21
 70
     1
102
RTVSPropertyOp22
 70
     1
102
RTVSPropertyOp23
 70
     1
102
RTVSPropertyOp24
 70
     1
102
RTVSPropertyOp25
 70
     1
102
RTVSPropertyOp26
 70
     1
102
RTVSPropertyOp27
 70
     1
102
RTVSPropertyOp28
 70
     1
102
RTVSPropertyOp29
 70
     1
102
RTVSPropertyOp30
 70
     1
102
RTVSPropertyOp31
 70
     1
102
RTVSPropertyOp32
 70
     1
  0
XRECORD
  5
611
102
{ACAD_REACTORS
330
610
102
}
330
610
100
AcDbXrecord
280
     1
102
RTVSPropertyOp0
 70
     0
102
RTVSPropertyOp1
 70
     0
102
RTVSPropertyOp2
 70
     0
102
RTVSPropertyOp3
 70
     0
102
RTVSPropertyOp4
 70
     0
102
RTVSPropertyOp5
 70
     0
102
RTVSPropertyOp6
 70
     0
102
RTVSPropertyOp7
 70
     0
102
RTVSPropertyOp8
 70
     0
102
RTVSPropertyOp9
 70
     0
102
RTVSPropertyOp10
 70
     0
102
RTVSPropertyOp11
 70
     0
102
RTVSPropertyOp12
 70
     0
102
RTVSPropertyOp13
 70
     0
102
RTVSPropertyOp14
 70
     2
102
RTVSPropertyOp15
 70
     0
102
RTVSPropertyOp16
 70
     0
102
RTVSPropertyOp17
 70
     0
102
RTVSPropertyOp18
 70
     0
102
RTVSPropertyOp19
 70
     0
102
RTVSPropertyOp20
 70
     0
102
RTVSPropertyOp21
 70
     0
102
RTVSPropertyOp22
 70
     0
102
RTVSPropertyOp23
 70
     0
102
RTVSPropertyOp24
 70
     0
102
RTVSPropertyOp25
 70
     0
102
RTVSPropertyOp26
 70
     0
102
RTVSPropertyOp27
 70
     0
102
RTVSPropertyOp28
 70
     0
102
RTVSPropertyOp29
 70
     0
102
RTVSPropertyOp30
 70
     0
102
RTVSPropertyOp31
 70
     0
102
RTVSPropertyOp32
 70
     0
  0
XRECORD
  5
601
102
{ACAD_REACTORS
330
600
102
}
330
600
100
AcDbXrecord
280
     1
102
RTVSPropertyOp0
 70
     1
102
RTVSPropertyOp1
 70
     1
102
RTVSPropertyOp2
 70
     1
102
RTVSPropertyOp3
 70
     1
102
RTVSPropertyOp4
 70
     1
102
RTVSPropertyOp5
 70
     1
102
RTVSPropertyOp6
 70
     1
102
RTVSPropertyOp7
 70
     1
102
RTVSPropertyOp8
 70
     1
102
RTVSPropertyOp9
 70
     1
102
RTVSPropertyOp10
 70
     1
102
RTVSPropertyOp11
 70
     1
102
RTVSPropertyOp12
 70
     1
102
RTVSPropertyOp13
 70
     1
102
RTVSPropertyOp14
 70
     1
102
RTVSPropertyOp15
 70
     1
102
RTVSPropertyOp16
 70
     1
102
RTVSPropertyOp17
 70
     1
102
RTVSPropertyOp18
 70
     1
102
RTVSPropertyOp19
 70
     1
102
RTVSPropertyOp20
 70
     1
102
RTVSPropertyOp21
 70
     1
102
RTVSPropertyOp22
 70
     1
102
RTVSPropertyOp23
 70
     1
102
RTVSPropertyOp24
 70
     1
102
RTVSPropertyOp25
 70
     1
102
RTVSPropertyOp26
 70
     1
102
RTVSPropertyOp27
 70
     1
102
RTVSPropertyOp28
 70
     1
102
RTVSPropertyOp29
 70
     1
102
RTVSPropertyOp30
 70
     1
102
RTVSPropertyOp31
 70
     1
102
RTVSPropertyOp32
 70
     1
  0
XRECORD
  5
613
102
{ACAD_REACTORS
330
612
102
}
330
612
100
AcDbXrecord
280
     1
102
RTVSPropertyOp0
 70
     0
102
RTVSPropertyOp1
 70
     0
102
RTVSPropertyOp2
 70
     0
102
RTVSPropertyOp3
 70
     0
102
RTVSPropertyOp4
 70
     0
102
RTVSPropertyOp5
 70
     0
102
RTVSPropertyOp6
 70
     0
102
RTVSPropertyOp7
 70
     0
102
RTVSPropertyOp8
 70
     0
102
RTVSPropertyOp9
 70
     0
102
RTVSPropertyOp10
 70
     0
102
RTVSPropertyOp11
 70
     0
102
RTVSPropertyOp12
 70
     0
102
RTVSPropertyOp13
 70
     0
102
RTVSPropertyOp14
 70
     2
102
RTVSPropertyOp15
 70
     0
102
RTVSPropertyOp16
 70
     0
102
RTVSPropertyOp17
 70
     0
102
RTVSPropertyOp18
 70
     0
102
RTVSPropertyOp19
 70
     0
102
RTVSPropertyOp20
 70
     0
102
RTVSPropertyOp21
 70
     0
102
RTVSPropertyOp22
 70
     0
102
RTVSPropertyOp23
 70
     0
102
RTVSPropertyOp24
 70
     0
102
RTVSPropertyOp25
 70
     0
102
RTVSPropertyOp26
 70
     0
102
RTVSPropertyOp27
 70
     0
102
RTVSPropertyOp28
 70
     0
102
RTVSPropertyOp29
 70
     0
102
RTVSPropertyOp30
 70
     0
102
RTVSPropertyOp31
 70
     0
102
RTVSPropertyOp32
 70
     0
  0
XRECORD
  5
5F9
102
{ACAD_REACTORS
330
5F8
102
}
330
5F8
100
AcDbXrecord
280
     1
102
RTVSPropertyOp0
 70
     1
102
RTVSPropertyOp1
 70
     1
102
RTVSPropertyOp2
 70
     1
102
RTVSPropertyOp3
 70
     1
102
RTVSPropertyOp4
 70
     1
102
RTVSPropertyOp5
 70
     1
102
RTVSPropertyOp6
 70
     1
102
RTVSPropertyOp7
 70
     1
102
RTVSPropertyOp8
 70
     1
102
RTVSPropertyOp9
 70
     1
102
RTVSPropertyOp10
 70
     1
102
RTVSPropertyOp11
 70
     1
102
RTVSPropertyOp12
 70
     1
102
RTVSPropertyOp13
 70
     1
102
RTVSPropertyOp14
 70
     1
102
RTVSPropertyOp15
 70
     1
102
RTVSPropertyOp16
 70
     1
102
RTVSPropertyOp17
 70
     1
102
RTVSPropertyOp18
 70
     1
102
RTVSPropertyOp19
 70
     1
102
RTVSPropertyOp20
 70
     1
102
RTVSPropertyOp21
 70
     1
102
RTVSPropertyOp22
 70
     1
102
RTVSPropertyOp23
 70
     1
102
RTVSPropertyOp24
 70
     1
102
RTVSPropertyOp25
 70
     1
102
RTVSPropertyOp26
 70
     1
102
RTVSPropertyOp27
 70
     1
102
RTVSPropertyOp28
 70
     1
102
RTVSPropertyOp29
 70
     1
102
RTVSPropertyOp30
 70
     1
102
RTVSPropertyOp31
 70
     1
102
RTVSPropertyOp32
 70
     1
  0
XRECORD
  5
60F
102
{ACAD_REACTORS
330
60E
102
}
330
60E
100
AcDbXrecord
280
     1
102
RTVSPropertyOp0
 70
     1
102
RTVSPropertyOp1
 70
     1
102
RTVSPropertyOp2
 70
     1
102
RTVSPropertyOp3
 70
     1
102
RTVSPropertyOp4
 70
     1
102
RTVSPropertyOp5
 70
     1
102
RTVSPropertyOp6
 70
     1
102
RTVSPropertyOp7
 70
     1
102
RTVSPropertyOp8
 70
     1
102
RTVSPropertyOp9
 70
     1
102
RTVSPropertyOp10
 70
     1
102
RTVSPropertyOp11
 70
     1
102
RTVSPropertyOp12
 70
     1
102
RTVSPropertyOp13
 70
     1
102
RTVSPropertyOp14
 70
     1
102
RTVSPropertyOp15
 70
     1
102
RTVSPropertyOp16
 70
     1
102
RTVSPropertyOp17
 70
     1
102
RTVSPropertyOp18
 70
     1
102
RTVSPropertyOp19
 70
     1
102
RTVSPropertyOp20
 70
     1
102
RTVSPropertyOp21
 70
     1
102
RTVSPropertyOp22
 70
     1
102
RTVSPropertyOp23
 70
     1
102
RTVSPropertyOp24
 70
     1
102
RTVSPropertyOp25
 70
     1
102
RTVSPropertyOp26
 70
     1
102
RTVSPropertyOp27
 70
     1
102
RTVSPropertyOp28
 70
     1
102
RTVSPropertyOp29
 70
     1
102
RTVSPropertyOp30
 70
     1
102
RTVSPropertyOp31
 70
     1
102
RTVSPropertyOp32
 70
     1
  0
XRECORD
  5
60D
102
{ACAD_REACTORS
330
60C
102
}
330
60C
100
AcDbXrecord
280
     1
102
RTVSPropertyOp0
 70
     1
102
RTVSPropertyOp1
 70
     1
102
RTVSPropertyOp2
 70
     1
102
RTVSPropertyOp3
 70
     1
102
RTVSPropertyOp4
 70
     1
102
RTVSPropertyOp5
 70
     1
102
RTVSPropertyOp6
 70
     1
102
RTVSPropertyOp7
 70
     1
102
RTVSPropertyOp8
 70
     1
102
RTVSPropertyOp9
 70
     1
102
RTVSPropertyOp10
 70
     1
102
RTVSPropertyOp11
 70
     1
102
RTVSPropertyOp12
 70
     1
102
RTVSPropertyOp13
 70
     1
102
RTVSPropertyOp14
 70
     1
102
RTVSPropertyOp15
 70
     1
102
RTVSPropertyOp16
 70
     1
102
RTVSPropertyOp17
 70
     1
102
RTVSPropertyOp18
 70
     1
102
RTVSPropertyOp19
 70
     1
102
RTVSPropertyOp20
 70
     1
102
RTVSPropertyOp21
 70
     1
102
RTVSPropertyOp22
 70
     1
102
RTVSPropertyOp23
 70
     1
102
RTVSPropertyOp24
 70
     1
102
RTVSPropertyOp25
 70
     1
102
RTVSPropertyOp26
 70
     1
102
RTVSPropertyOp27
 70
     1
102
RTVSPropertyOp28
 70
     1
102
RTVSPropertyOp29
 70
     1
102
RTVSPropertyOp30
 70
     1
102
RTVSPropertyOp31
 70
     1
102
RTVSPropertyOp32
 70
     1
  0
XRECORD
  5
607
102
{ACAD_REACTORS
330
606
102
}
330
606
100
AcDbXrecord
280
     1
102
RTVSPropertyOp0
 70
     1
102
RTVSPropertyOp1
 70
     1
102
RTVSPropertyOp2
 70
     1
102
RTVSPropertyOp3
 70
     1
102
RTVSPropertyOp4
 70
     1
102
RTVSPropertyOp5
 70
     1
102
RTVSPropertyOp6
 70
     1
102
RTVSPropertyOp7
 70
     1
102
RTVSPropertyOp8
 70
     1
102
RTVSPropertyOp9
 70
     1
102
RTVSPropertyOp10
 70
     1
102
RTVSPropertyOp11
 70
     1
102
RTVSPropertyOp12
 70
     1
102
RTVSPropertyOp13
 70
     1
102
RTVSPropertyOp14
 70
     1
102
RTVSPropertyOp15
 70
     1
102
RTVSPropertyOp16
 70
     1
102
RTVSPropertyOp17
 70
     1
102
RTVSPropertyOp18
 70
     1
102
RTVSPropertyOp19
 70
     1
102
RTVSPropertyOp20
 70
     1
102
RTVSPropertyOp21
 70
     1
102
RTVSPropertyOp22
 70
     1
102
RTVSPropertyOp23
 70
     1
102
RTVSPropertyOp24
 70
     1
102
RTVSPropertyOp25
 70
     1
102
RTVSPropertyOp26
 70
     1
102
RTVSPropertyOp27
 70
     1
102
RTVSPropertyOp28
 70
     1
102
RTVSPropertyOp29
 70
     1
102
RTVSPropertyOp30
 70
     1
102
RTVSPropertyOp31
 70
     1
102
RTVSPropertyOp32
 70
     1
  0
XRECORD
  5
609
102
{ACAD_REACTORS
330
608
102
}
330
608
100
AcDbXrecord
280
     1
102
RTVSPropertyOp0
 70
     1
102
RTVSPropertyOp1
 70
     1
102
RTVSPropertyOp2
 70
     1
102
RTVSPropertyOp3
 70
     1
102
RTVSPropertyOp4
 70
     1
102
RTVSPropertyOp5
 70
     1
102
RTVSPropertyOp6
 70
     1
102
RTVSPropertyOp7
 70
     1
102
RTVSPropertyOp8
 70
     1
102
RTVSPropertyOp9
 70
     1
102
RTVSPropertyOp10
 70
     1
102
RTVSPropertyOp11
 70
     1
102
RTVSPropertyOp12
 70
     1
102
RTVSPropertyOp13
 70
     1
102
RTVSPropertyOp14
 70
     1
102
RTVSPropertyOp15
 70
     1
102
RTVSPropertyOp16
 70
     1
102
RTVSPropertyOp17
 70
     1
102
RTVSPropertyOp18
 70
     1
102
RTVSPropertyOp19
 70
     1
102
RTVSPropertyOp20
 70
     1
102
RTVSPropertyOp21
 70
     1
102
RTVSPropertyOp22
 70
     1
102
RTVSPropertyOp23
 70
     1
102
RTVSPropertyOp24
 70
     1
102
RTVSPropertyOp25
 70
     1
102
RTVSPropertyOp26
 70
     1
102
RTVSPropertyOp27
 70
     1
102
RTVSPropertyOp28
 70
     1
102
RTVSPropertyOp29
 70
     1
102
RTVSPropertyOp30
 70
     1
102
RTVSPropertyOp31
 70
     1
102
RTVSPropertyOp32
 70
     1
  0
XRECORD
  5
5FF
102
{ACAD_REACTORS
330
5FE
102
}
330
5FE
100
AcDbXrecord
280
     1
102
RTVSPropertyOp0
 70
     1
102
RTVSPropertyOp1
 70
     1
102
RTVSPropertyOp2
 70
     1
102
RTVSPropertyOp3
 70
     1
102
RTVSPropertyOp4
 70
     1
102
RTVSPropertyOp5
 70
     1
102
RTVSPropertyOp6
 70
     1
102
RTVSPropertyOp7
 70
     1
102
RTVSPropertyOp8
 70
     1
102
RTVSPropertyOp9
 70
     1
102
RTVSPropertyOp10
 70
     1
102
RTVSPropertyOp11
 70
     1
102
RTVSPropertyOp12
 70
     1
102
RTVSPropertyOp13
 70
     1
102
RTVSPropertyOp14
 70
     1
102
RTVSPropertyOp15
 70
     1
102
RTVSPropertyOp16
 70
     1
102
RTVSPropertyOp17
 70
     1
102
RTVSPropertyOp18
 70
     1
102
RTVSPropertyOp19
 70
     1
102
RTVSPropertyOp20
 70
     1
102
RTVSPropertyOp21
 70
     1
102
RTVSPropertyOp22
 70
     1
102
RTVSPropertyOp23
 70
     1
102
RTVSPropertyOp24
 70
     1
102
RTVSPropertyOp25
 70
     1
102
RTVSPropertyOp26
 70
     1
102
RTVSPropertyOp27
 70
     1
102
RTVSPropertyOp28
 70
     1
102
RTVSPropertyOp29
 70
     1
102
RTVSPropertyOp30
 70
     1
102
RTVSPropertyOp31
 70
     1
102
RTVSPropertyOp32
 70
     1
  0
XRECORD
  5
5F3
102
{ACAD_REACTORS
330
5F2
102
}
330
5F2
100
AcDbXrecord
280
     1
102
RTVSPropertyOp0
 70
     1
102
RTVSPropertyOp1
 70
     1
102
RTVSPropertyOp2
 70
     1
102
RTVSPropertyOp3
 70
     1
102
RTVSPropertyOp4
 70
     1
102
RTVSPropertyOp5
 70
     1
102
RTVSPropertyOp6
 70
     1
102
RTVSPropertyOp7
 70
     1
102
RTVSPropertyOp8
 70
     1
102
RTVSPropertyOp9
 70
     1
102
RTVSPropertyOp10
 70
     1
102
RTVSPropertyOp11
 70
     1
102
RTVSPropertyOp12
 70
     1
102
RTVSPropertyOp13
 70
     1
102
RTVSPropertyOp14
 70
     1
102
RTVSPropertyOp15
 70
     1
102
RTVSPropertyOp16
 70
     1
102
RTVSPropertyOp17
 70
     1
102
RTVSPropertyOp18
 70
     1
102
RTVSPropertyOp19
 70
     1
102
RTVSPropertyOp20
 70
     1
102
RTVSPropertyOp21
 70
     1
102
RTVSPropertyOp22
 70
     1
102
RTVSPropertyOp23
 70
     1
102
RTVSPropertyOp24
 70
     1
102
RTVSPropertyOp25
 70
     1
102
RTVSPropertyOp26
 70
     1
102
RTVSPropertyOp27
 70
     1
102
RTVSPropertyOp28
 70
     1
102
RTVSPropertyOp29
 70
     1
102
RTVSPropertyOp30
 70
     1
102
RTVSPropertyOp31
 70
     1
102
RTVSPropertyOp32
 70
     1
  0
XRECORD
  5
60B
102
{ACAD_REACTORS
330
60A
102
}
330
60A
100
AcDbXrecord
280
     1
102
RTVSPropertyOp0
 70
     1
102
RTVSPropertyOp1
 70
     1
102
RTVSPropertyOp2
 70
     1
102
RTVSPropertyOp3
 70
     1
102
RTVSPropertyOp4
 70
     1
102
RTVSPropertyOp5
 70
     1
102
RTVSPropertyOp6
 70
     1
102
RTVSPropertyOp7
 70
     1
102
RTVSPropertyOp8
 70
     1
102
RTVSPropertyOp9
 70
     1
102
RTVSPropertyOp10
 70
     1
102
RTVSPropertyOp11
 70
     1
102
RTVSPropertyOp12
 70
     1
102
RTVSPropertyOp13
 70
     1
102
RTVSPropertyOp14
 70
     1
102
RTVSPropertyOp15
 70
     1
102
RTVSPropertyOp16
 70
     1
102
RTVSPropertyOp17
 70
     1
102
RTVSPropertyOp18
 70
     1
102
RTVSPropertyOp19
 70
     1
102
RTVSPropertyOp20
 70
     1
102
RTVSPropertyOp21
 70
     1
102
RTVSPropertyOp22
 70
     1
102
RTVSPropertyOp23
 70
     1
102
RTVSPropertyOp24
 70
     1
102
RTVSPropertyOp25
 70
     1
102
RTVSPropertyOp26
 70
     1
102
RTVSPropertyOp27
 70
     1
102
RTVSPropertyOp28
 70
     1
102
RTVSPropertyOp29
 70
     1
102
RTVSPropertyOp30
 70
     1
102
RTVSPropertyOp31
 70
     1
102
RTVSPropertyOp32
 70
     1
  0
ENDSEC
  0
EOF
