  0
SECTION
  2
HEADER
  9
$ACADVER
  1
AC1015
  9
$ACADMAINTVER
 70
    20
  9
$DWGCODEPAGE
  3
ANSI_936
  9
$INSBASE
 10
0.0
 20
0.0
 30
0.0
  9
$EXTMIN
 10
660.240179939425
 20
308.2788492320233
 30
0.0
  9
$EXTMAX
 10
1217.940179939428
 20
800.9788492320227
 30
0.0
  9
$LIMMIN
 10
0.0
 20
0.0
  9
$LIMMAX
 10
12.0
 20
9.0
  9
$ORTHOMODE
 70
     0
  9
$REGENMODE
 70
     1
  9
$FILLMODE
 70
     1
  9
$QTEXTMODE
 70
     0
  9
$MIRRTEXT
 70
     0
  9
$LTSCALE
 40
1.0
  9
$ATTMODE
 70
     1
  9
$TEXTSIZE
 40
0.2
  9
$TRACEWID
 40
0.05
  9
$TEXTSTYLE
  7
Standard
  9
$CLAYER
  8
0
  9
$CELTYPE
  6
ByLayer
  9
$CECOLOR
 62
   256
  9
$CELTSCALE
 40
1.0
  9
$DISPSILH
 70
     0
  9
$DIMSCALE
 40
1.0
  9
$DIMASZ
 40
0.18
  9
$DIMEXO
 40
0.0625
  9
$DIMDLI
 40
0.38
  9
$DIMRND
 40
0.0
  9
$DIMDLE
 40
0.0
  9
$DIMEXE
 40
0.18
  9
$DIMTP
 40
0.0
  9
$DIMTM
 40
0.0
  9
$DIMTXT
 40
0.18
  9
$DIMCEN
 40
0.09
  9
$DIMTSZ
 40
0.0
  9
$DIMTOL
 70
     0
  9
$DIMLIM
 70
     0
  9
$DIMTIH
 70
     1
  9
$DIMTOH
 70
     1
  9
$DIMSE1
 70
     0
  9
$DIMSE2
 70
     0
  9
$DIMTAD
 70
     0
  9
$DIMZIN
 70
     0
  9
$DIMBLK
  1

  9
$DIMASO
 70
     1
  9
$DIMSHO
 70
     1
  9
$DIMPOST
  1

  9
$DIMAPOST
  1

  9
$DIMALT
 70
     0
  9
$DIMALTD
 70
     2
  9
$DIMALTF
 40
25.4
  9
$DIMLFAC
 40
1.0
  9
$DIMTOFL
 70
     0
  9
$DIMTVP
 40
0.0
  9
$DIMTIX
 70
     0
  9
$DIMSOXD
 70
     0
  9
$DIMSAH
 70
     0
  9
$DIMBLK1
  1

  9
$DIMBLK2
  1

  9
$DIMSTYLE
  2
Standard
  9
$DIMCLRD
 70
     0
  9
$DIMCLRE
 70
     0
  9
$DIMCLRT
 70
     0
  9
$DIMTFAC
 40
1.0
  9
$DIMGAP
 40
0.09
  9
$DIMJUST
 70
     0
  9
$DIMSD1
 70
     0
  9
$DIMSD2
 70
     0
  9
$DIMTOLJ
 70
     1
  9
$DIMTZIN
 70
     0
  9
$DIMALTZ
 70
     0
  9
$DIMALTTZ
 70
     0
  9
$DIMUPT
 70
     0
  9
$DIMDEC
 70
     4
  9
$DIMTDEC
 70
     4
  9
$DIMALTU
 70
     2
  9
$DIMALTTD
 70
     2
  9
$DIMTXSTY
  7
Standard
  9
$DIMAUNIT
 70
     0
  9
$DIMADEC
 70
     0
  9
$DIMALTRND
 40
0.0
  9
$DIMAZIN
 70
     0
  9
$DIMDSEP
 70
    46
  9
$DIMATFIT
 70
     3
  9
$DIMFRAC
 70
     0
  9
$DIMLDRBLK
  1

  9
$DIMLUNIT
 70
     2
  9
$DIMLWD
 70
    -2
  9
$DIMLWE
 70
    -2
  9
$DIMTMOVE
 70
     0
  9
$LUNITS
 70
     2
  9
$LUPREC
 70
     4
  9
$SKETCHINC
 40
0.1
  9
$FILLETRAD
 40
0.0
  9
$AUNITS
 70
     0
  9
$AUPREC
 70
     0
  9
$MENU
  1
.
  9
$ELEVATION
 40
0.0
  9
$PELEVATION
 40
0.0
  9
$THICKNESS
 40
0.0
  9
$LIMCHECK
 70
     0
  9
$CHAMFERA
 40
0.0
  9
$CHAMFERB
 40
0.0
  9
$CHAMFERC
 40
0.0
  9
$CHAMFERD
 40
0.0
  9
$SKPOLY
 70
     0
  9
$TDCREATE
 40
2456023.593803449
  9
$TDUCREATE
 40
2456023.260470116
  9
$TDUPDATE
 40
2457169.708869584
  9
$TDUUPDATE
 40
2457169.375536250
  9
$TDINDWG
 40
0.0039380440
  9
$TDUSRTIMER
 40
0.0039375000
  9
$USRTIMER
 70
     1
  9
$ANGBASE
 50
0.0
  9
$ANGDIR
 70
     0
  9
$PDMODE
 70
     0
  9
$PDSIZE
 40
0.0
  9
$PLINEWID
 40
0.0
  9
$SPLFRAME
 70
     0
  9
$SPLINETYPE
 70
     6
  9
$SPLINESEGS
 70
     8
  9
$HANDSEED
  5
615
  9
$SURFTAB1
 70
     6
  9
$SURFTAB2
 70
     6
  9
$SURFTYPE
 70
     6
  9
$SURFU
 70
     6
  9
$SURFV
 70
     6
  9
$UCSBASE
  2

  9
$UCSNAME
  2

  9
$UCSORG
 10
0.0
 20
0.0
 30
0.0
  9
$UCSXDIR
 10
1.0
 20
0.0
 30
0.0
  9
$UCSYDIR
 10
0.0
 20
1.0
 30
0.0
  9
$UCSORTHOREF
  2

  9
$UCSORTHOVIEW
 70
     0
  9
$UCSORGTOP
 10
0.0
 20
0.0
 30
0.0
  9
$UCSORGBOTTOM
 10
0.0
 20
0.0
 30
0.0
  9
$UCSORGLEFT
 10
0.0
 20
0.0
 30
0.0
  9
$UCSORGRIGHT
 10
0.0
 20
0.0
 30
0.0
  9
$UCSORGFRONT
 10
0.0
 20
0.0
 30
0.0
  9
$UCSORGBACK
 10
0.0
 20
0.0
 30
0.0
  9
$PUCSBASE
  2

  9
$PUCSNAME
  2

  9
$PUCSORG
 10
0.0
 20
0.0
 30
0.0
  9
$PUCSXDIR
 10
1.0
 20
0.0
 30
0.0
  9
$PUCSYDIR
 10
0.0
 20
1.0
 30
0.0
  9
$PUCSORTHOREF
  2

  9
$PUCSORTHOVIEW
 70
     0
  9
$PUCSORGTOP
 10
0.0
 20
0.0
 30
0.0
  9
$PUCSORGBOTTOM
 10
0.0
 20
0.0
 30
0.0
  9
$PUCSORGLEFT
 10
0.0
 20
0.0
 30
0.0
  9
$PUCSORGRIGHT
 10
0.0
 20
0.0
 30
0.0
  9
$PUCSORGFRONT
 10
0.0
 20
0.0
 30
0.0
  9
$PUCSORGBACK
 10
0.0
 20
0.0
 30
0.0
  9
$USERI1
 70
     0
  9
$USERI2
 70
     0
  9
$USERI3
 70
     0
  9
$USERI4
 70
     0
  9
$USERI5
 70
     0
  9
$USERR1
 40
0.0
  9
$USERR2
 40
0.0
  9
$USERR3
 40
0.0
  9
$USERR4
 40
0.0
  9
$USERR5
 40
0.0
  9
$WORLDVIEW
 70
     1
  9
$SHADEDGE
 70
     3
  9
$SHADEDIF
 70
    70
  9
$TILEMODE
 70
     1
  9
$MAXACTVP
 70
    64
  9
$PINSBASE
 10
0.0
 20
0.0
 30
0.0
  9
$PLIMCHECK
 70
     0
  9
$PEXTMIN
 10
1.000000000000000E+20
 20
1.000000000000000E+20
 30
1.000000000000000E+20
  9
$PEXTMAX
 10
-1.000000000000000E+20
 20
-1.000000000000000E+20
 30
-1.000000000000000E+20
  9
$PLIMMIN
 10
0.0
 20
0.0
  9
$PLIMMAX
 10
12.0
 20
9.0
  9
$UNITMODE
 70
     0
  9
$VISRETAIN
 70
     1
  9
$PLINEGEN
 70
     0
  9
$PSLTSCALE
 70
     1
  9
$TREEDEPTH
 70
  3020
  9
$CMLSTYLE
  2
Standard
  9
$CMLJUST
 70
     0
  9
$CMLSCALE
 40
1.0
  9
$PROXYGRAPHICS
 70
     1
  9
$MEASUREMENT
 70
     0
  9
$CELWEIGHT
370
    -1
  9
$ENDCAPS
280
     0
  9
$JOINSTYLE
280
     0
  9
$LWDISPLAY
290
     0
  9
$INSUNITS
 70
     1
  9
$HYPERLINKBASE
  1

  9
$STYLESHEET
  1

  9
$XEDIT
290
     1
  9
$CEPSNTYPE
380
     0
  9
$PSTYLEMODE
290
     1
  9
$FINGERPRINTGUID
  2
{411EE9E1-875C-439D-9A5F-EBAE7942E4A2}
  9
$VERSIONGUID
  2
{B49EA5F8-576F-4A95-8D2B-0BA4FE94F8DD}
  9
$EXTNAMES
290
     1
  9
$PSVPSCALE
 40
0.0
  9
$OLESTARTUP
290
     0
  0
ENDSEC
  0
SECTION
  2
CLASSES
  0
CLASS
  1
ACDBDICTIONARYWDFLT
  2
AcDbDictionaryWithDefault
  3
ObjectDBX Classes
 90
        0
280
     0
281
     0
  0
CLASS
  1
MATERIAL
  2
AcDbMaterial
  3
ObjectDBX Classes
 90
     1153
280
     0
281
     0
  0
CLASS
  1
VISUALSTYLE
  2
AcDbVisualStyle
  3
ObjectDBX Classes
 90
     4095
280
     0
281
     0
  0
CLASS
  1
SCALE
  2
AcDbScale
  3
ObjectDBX Classes
 90
     1153
280
     0
281
     0
  0
CLASS
  1
TABLESTYLE
  2
AcDbTableStyle
  3
ObjectDBX Classes
 90
     4095
280
     0
281
     0
  0
CLASS
  1
MLEADERSTYLE
  2
AcDbMLeaderStyle
  3
ACDB_MLEADERSTYLE_CLASS
 90
     4095
280
     0
281
     0
  0
CLASS
  1
EXACXREFPANELOBJECT
  2
ExAcXREFPanelObject
  3
EXAC_ESW
 90
    33793
280
     0
281
     0
  0
CLASS
  1
NPOCOLLECTION
  2
AcDbImpNonPersistentObjectsCollection
  3
ObjectDBX Classes
 90
    33921
280
     0
281
     0
  0
CLASS
  1
SORTENTSTABLE
  2
AcDbSortentsTable
  3
ObjectDBX Classes
 90
        0
280
     0
281
     0
  0
CLASS
  1
DIMASSOC
  2
AcDbDimAssoc
  3
"AcDbDimAssoc|Product Desc:     AcDim ARX App For Dimension|Company:          Autodesk, Inc.|WEB Address:      www.autodesk.com"
 90
    32768
280
     0
281
     0
  0
CLASS
  1
CELLSTYLEMAP
  2
AcDbCellStyleMap
  3
ObjectDBX Classes
 90
     1152
280
     0
281
     0
  0
CLASS
  1
DICTIONARYVAR
  2
AcDbDictionaryVar
  3
ObjectDBX Classes
 90
        0
280
     0
281
     0
  0
CLASS
  1
ACDBPLACEHOLDER
  2
AcDbPlaceHolder
  3
ObjectDBX Classes
 90
        0
280
     0
281
     0
  0
CLASS
  1
LAYOUT
  2
AcDbLayout
  3
ObjectDBX Classes
 90
        0
280
     0
281
     0
  0
ENDSEC
  0
SECTION
  2
TABLES
  0
TABLE
  2
VPORT
  5
8
102
{ACAD_XDICTIONARY
360
4A8
102
}
330
0
100
AcDbSymbolTable
 70
     1
  0
VPORT
  5
57
330
8
100
AcDbSymbolTableRecord
100
AcDbViewportTableRecord
  2
*Active
 70
     0
 10
0.0
 20
0.0
 11
1.0
 21
1.0
 12
879.7702358676593
 22
583.7625182747851
 13
0.0
 23
0.0
 14
0.5
 24
0.5
 15
0.5
 25
0.5
 16
0.0
 26
0.0
 36
1.0
 17
0.0
 27
0.0
 37
0.0
 40
918.1058256209785
 41
1.658741258741258
 42
50.0
 43
0.0
 44
0.0
 50
0.0
 51
0.0
 71
     0
 72
  1000
 73
     1
 74
     3
 75
     0
 76
     0
 77
     0
 78
     0
281
     0
 65
     1
110
0.0
120
0.0
130
0.0
111
1.0
121
0.0
131
0.0
112
0.0
122
1.0
132
0.0
 79
     0
146
0.0
  0
ENDTAB
  0
TABLE
  2
LTYPE
  5
5
330
0
100
AcDbSymbolTable
 70
     2
  0
LTYPE
  5
5B
330
5
100
AcDbSymbolTableRecord
100
AcDbLinetypeTableRecord
  2
ByBlock
 70
     0
  3

 72
    65
 73
     0
 40
0.0
  0
LTYPE
  5
5C
330
5
100
AcDbSymbolTableRecord
100
AcDbLinetypeTableRecord
  2
ByLayer
 70
     0
  3

 72
    65
 73
     0
 40
0.0
  0
LTYPE
  5
5D
330
5
100
AcDbSymbolTableRecord
100
AcDbLinetypeTableRecord
  2
Continuous
 70
     0
  3
Solid line
 72
    65
 73
     0
 40
0.0
  0
LTYPE
  5
14C
330
5
100
AcDbSymbolTableRecord
100
AcDbLinetypeTableRecord
  2
CENTER2
 70
     0
  3
Center (.5x) ___ _ ___ _ ___ _ 
 72
    65
 73
     4
 40
1.125
 49
0.7500000000000001
 74
     0
 49
-0.125
 74
     0
 49
0.125
 74
     0
 49
-0.125
 74
     0
  0
ENDTAB
  0
TABLE
  2
LAYER
  5
2
102
{ACAD_XDICTIONARY
360
158
102
}
330
0
100
AcDbSymbolTable
 70
     3
  0
LAYER
  5
54
330
2
100
AcDbSymbolTableRecord
100
AcDbLayerTableRecord
  2
0
 70
     0
 62
     7
  6
Continuous
370
    -3
390
F
  0
LAYER
  5
14D
102
{ACAD_XDICTIONARY
360
14E
102
}
330
2
100
AcDbSymbolTableRecord
100
AcDbLayerTableRecord
  2
CENTER
 70
     0
 62
     1
  6
CENTER2
370
    -3
390
F
  0
LAYER
  5
14F
330
2
100
AcDbSymbolTableRecord
100
AcDbLayerTableRecord
  2
DEFPOINTS
 70
     0
 62
     5
  6
Continuous
290
     0
370
    -3
390
F
  0
ENDTAB
  0
TABLE
  2
STYLE
  5
3
330
0
100
AcDbSymbolTable
 70
     2
  0
STYLE
  5
55
330
3
100
AcDbSymbolTableRecord
100
AcDbTextStyleTableRecord
  2
Standard
 70
     0
 40
0.0
 41
1.0
 50
0.0
 71
     0
 42
0.2
  3
txt
  4

  0
STYLE
  5
5A
330
3
100
AcDbSymbolTableRecord
100
AcDbTextStyleTableRecord
  2
Annotative
 70
     0
 40
0.0
 41
1.0
 50
0.0
 71
     0
 42
0.2
  3
txt
  4

1001
AcadAnnotative
1000
AnnotativeData
1002
{
1070
     1
1070
     1
1002
}
  0
ENDTAB
  0
TABLE
  2
VIEW
  5
6
330
0
100
AcDbSymbolTable
 70
     0
  0
ENDTAB
  0
TABLE
  2
UCS
  5
7
330
0
100
AcDbSymbolTable
 70
     0
  0
ENDTAB
  0
TABLE
  2
APPID
  5
9
330
0
100
AcDbSymbolTable
 70
     8
  0
APPID
  5
56
330
9
100
AcDbSymbolTableRecord
100
AcDbRegAppTableRecord
  2
ACAD
 70
     0
  0
APPID
  5
5E
330
9
100
AcDbSymbolTableRecord
100
AcDbRegAppTableRecord
  2
AcadAnnotative
 70
     0
  0
APPID
  5
156
330
9
100
AcDbSymbolTableRecord
100
AcDbRegAppTableRecord
  2
ACAD_PSEXT
 70
     0
  0
APPID
  5
157
330
9
100
AcDbSymbolTableRecord
100
AcDbRegAppTableRecord
  2
ACAD_DSTYLE_DIMJOGGED_JOGANGLE_SYMBOL
 70
     0
  0
APPID
  5
3E8
330
9
100
AcDbSymbolTableRecord
100
AcDbRegAppTableRecord
  2
AcDbBlockRepETag
 70
     0
  0
APPID
  5
4DE
330
9
100
AcDbSymbolTableRecord
100
AcDbRegAppTableRecord
  2
ACAD_MLEADERVER
 70
     0
  0
APPID
  5
4E5
330
9
100
AcDbSymbolTableRecord
100
AcDbRegAppTableRecord
  2
ACAD_DSTYLE_DIMEXT_LENGTH
 70
     0
  0
APPID
  5
4F9
330
9
100
AcDbSymbolTableRecord
100
AcDbRegAppTableRecord
  2
ACAD_EXEMPT_FROM_CAD_STANDARDS
 70
     0
  0
ENDTAB
  0
TABLE
  2
DIMSTYLE
  5
A
330
0
100
AcDbSymbolTable
 70
     8
100
AcDbDimStyleTable
 71
     1
340
58
  0
DIMSTYLE
105
58
330
A
100
AcDbSymbolTableRecord
100
AcDbDimStyleTableRecord
  2
Standard
 70
     0
340
55
  0
DIMSTYLE
105
59
330
A
100
AcDbSymbolTableRecord
100
AcDbDimStyleTableRecord
  2
Annotative
 70
     0
340
55
1001
AcadAnnotative
1000
AnnotativeData
1002
{
1070
     1
1070
     1
1002
}
  0
DIMSTYLE
105
150
330
A
100
AcDbSymbolTableRecord
100
AcDbDimStyleTableRecord
  2
B11
 70
     0
 40
7.62
 41
2.0
 42
0.8
 43
0.7
 44
1.5
 45
0.00001
 47
0.3
 71
     1
 73
     0
 74
     0
 77
     1
 78
     1
140
1.9
141
0.0
144
0.2
146
0.7
147
0.6
179
     1
271
     1
272
     1
284
    10
340
55
  0
DIMSTYLE
105
151
330
A
100
AcDbSymbolTableRecord
100
AcDbDimStyleTableRecord
  2
15
 70
     0
 41
5.0
 42
1.0
 43
1.0
 44
1.0
 47
1.0
 48
1.000000000999997
 71
     1
 73
     0
 74
     0
 77
     1
 78
     8
 79
     2
140
15.0
141
0.0
143
0.03937007874016
147
1.0
171
     3
179
     2
271
     0
272
     0
274
     3
284
     8
340
55
371
     9
372
     9
1001
ACAD_DSTYLE_DIMEXT_LENGTH
1070
   378
1040
1.25
1001
ACAD_DSTYLE_DIMJOGGED_JOGANGLE_SYMBOL
1070
   384
1040
1.570796326794896
  0
DIMSTYLE
105
152
330
A
100
AcDbSymbolTableRecord
100
AcDbDimStyleTableRecord
  2
BX4
 70
     0
 40
7.62
 41
2.0
 42
0.8
 43
0.7
 44
1.5
 73
     0
 74
     0
 77
     1
140
1.9
141
0.1
144
0.25
147
0.6
271
     1
272
     1
289
     2
340
55
  0
DIMSTYLE
105
153
330
A
100
AcDbSymbolTableRecord
100
AcDbDimStyleTableRecord
  2
C
 70
     0
  3
%%c<>
 40
7.62
 41
1.5
 42
0.3125
 43
0.7
 44
1.0
 73
     0
 74
     0
 77
     1
140
1.3
141
0.045
147
0.3
271
     1
289
     2
340
55
  0
DIMSTYLE
105
154
330
A
100
AcDbSymbolTableRecord
100
AcDbDimStyleTableRecord
  2
D
 70
     0
  3
%%c<>
 40
7.62
 41
2.0
 42
0.6
 43
0.7
 44
1.5
 73
     0
 74
     0
 77
     1
140
1.9
141
0.1
147
0.6
271
     0
289
     2
340
55
  0
DIMSTYLE
105
155
330
A
100
AcDbSymbolTableRecord
100
AcDbDimStyleTableRecord
  2
b44
 70
     0
  3
"
  4
"
 40
10.0
 41
1.0
 42
0.3125
 43
0.7
 44
1.0
 47
1.0
 48
1.0
 77
     1
140
2.0
141
0.045
143
0.03937
144
0.03937
146
0.8
147
0.8
271
     3
272
     3
273
     5
277
     5
340
55
1001
ACAD_DSTYLE_DIMJOGGED_JOGANGLE_SYMBOL
1070
   384
1040
0.7853981633974483
  0
ENDTAB
  0
TABLE
  2
BLOCK_RECORD
  5
1
330
0
100
AcDbSymbolTable
 70
     8
  0
BLOCK_RECORD
  5
6C
330
1
100
AcDbSymbolTableRecord
100
AcDbBlockTableRecord
  2
*Model_Space
340
6F
  0
BLOCK_RECORD
  5
68
330
1
100
AcDbSymbolTableRecord
100
AcDbBlockTableRecord
  2
*Paper_Space
340
6B
  0
BLOCK_RECORD
  5
70
330
1
100
AcDbSymbolTableRecord
100
AcDbBlockTableRecord
  2
*Paper_Space0
340
73
  0
BLOCK_RECORD
  5
78
102
{ACAD_XDICTIONARY
360
79
102
}
330
1
100
AcDbSymbolTableRecord
100
AcDbBlockTableRecord
  2
A$C7B7D6155
340
0
102
{BLKREFS
331
E1
102
}
  0
BLOCK_RECORD
  5
DD
102
{ACAD_XDICTIONARY
360
DE
102
}
330
1
100
AcDbSymbolTableRecord
100
AcDbBlockTableRecord
  2
A$C40C2364E
340
0
102
{BLKREFS
331
44C
102
}
  0
BLOCK_RECORD
  5
EF
102
{ACAD_XDICTIONARY
360
F0
102
}
330
1
100
AcDbSymbolTableRecord
100
AcDbBlockTableRecord
  2
A$C00A4450E
340
0
  0
BLOCK_RECORD
  5
2C2
102
{ACAD_XDICTIONARY
360
2C3
102
}
330
1
100
AcDbSymbolTableRecord
100
AcDbBlockTableRecord
  2
A$C5B367DAB
340
0
  0
BLOCK_RECORD
  5
461
330
1
100
AcDbSymbolTableRecord
100
AcDbBlockTableRecord
  2
*D5
340
0
  0
BLOCK_RECORD
  5
46E
330
1
100
AcDbSymbolTableRecord
100
AcDbBlockTableRecord
  2
*D6
340
0
  0
BLOCK_RECORD
  5
47A
330
1
100
AcDbSymbolTableRecord
100
AcDbBlockTableRecord
  2
*D7
340
0
  0
ENDTAB
  0
ENDSEC
  0
SECTION
  2
BLOCKS
  0
BLOCK
  5
6D
330
6C
100
AcDbEntity
  8
0
100
AcDbBlockBegin
  2
*Model_Space
 70
     0
 10
0.0
 20
0.0
 30
0.0
  3
*Model_Space
  1

  0
ENDBLK
  5
6E
330
6C
100
AcDbEntity
  8
0
100
AcDbBlockEnd
  0
BLOCK
  5
69
330
68
100
AcDbEntity
 67
     1
  8
0
100
AcDbBlockBegin
  2
*Paper_Space
 70
     0
 10
0.0
 20
0.0
 30
0.0
  3
*Paper_Space
  1

  0
ENDBLK
  5
6A
330
68
100
AcDbEntity
 67
     1
  8
0
100
AcDbBlockEnd
  0
BLOCK
  5
71
330
70
100
AcDbEntity
 67
     1
  8
0
100
AcDbBlockBegin
  2
*Paper_Space0
 70
     0
 10
0.0
 20
0.0
 30
0.0
  3
*Paper_Space0
  1

  0
ENDBLK
  5
72
330
70
100
AcDbEntity
 67
     1
  8
0
100
AcDbBlockEnd
  0
BLOCK
  5
7B
330
78
100
AcDbEntity
  8
0
 62
     7
100
AcDbBlockBegin
  2
A$C7B7D6155
 70
     0
 10
0.0
 20
0.0
 30
0.0
  3
A$C7B7D6155
  1

  0
LINE
  5
7C
330
78
100
AcDbEntity
  8
0
 62
     7
100
AcDbLine
 10
128.4718868992113
 20
-68.11360423731184
 30
0.0
 11
128.4718868992113
 21
-2.147667535574328
 31
0.0
  0
LINE
  5
7D
330
78
100
AcDbEntity
  8
0
 62
     7
100
AcDbLine
 10
131.4718868992112
 20
-68.11360423731184
 30
0.0
 11
131.4718868992112
 21
-2.147667535574328
 31
0.0
  0
ARC
  5
7E
330
78
100
AcDbEntity
  8
0
 62
     7
100
AcDbCircle
 10
123.4718868992113
 20
-2.147667535574328
 30
0.0
 40
5.0
100
AcDbArc
 50
0.0
 51
90.0
  0
ARC
  5
7F
330
78
100
AcDbEntity
  8
0
 62
     7
100
AcDbCircle
 10
123.4718868992113
 20
-2.147667535574328
 30
0.0
 40
8.0
100
AcDbArc
 50
0.0
 51
90.0
  0
LINE
  5
80
330
78
100
AcDbEntity
  8
0
 62
     7
100
AcDbLine
 10
87.64094014464172
 20
2.85233246442567
 30
0.0
 11
123.4718868992113
 21
2.85233246442567
 31
0.0
  0
LINE
  5
81
330
78
100
AcDbEntity
  8
0
 62
     7
100
AcDbLine
 10
87.64094014464172
 20
5.85233246442567
 30
0.0
 11
123.4718868992113
 21
5.85233246442567
 31
0.0
  0
LINE
  5
82
330
78
100
AcDbEntity
  8
0
 62
     7
100
AcDbLine
 10
87.64094014464172
 20
5.852332464425217
 30
0.0
 11
87.64094014464172
 21
2.852332464426126
 31
0.0
  0
LINE
  5
83
330
78
100
AcDbEntity
  8
0
 62
     7
100
AcDbLine
 10
103.2000983335801
 20
2.85233246442567
 30
0.0
 11
99.71272570963629
 21
-4.73587245071303
 31
0.0
  0
LINE
  5
84
330
78
100
AcDbEntity
  8
0
 62
     7
100
AcDbLine
 10
107.7432780870676
 20
0.7643866491562222
 30
0.0
 11
102.8713857624138
 21
-9.836406919660475
 31
0.0
  0
LINE
  5
85
330
78
100
AcDbEntity
  8
0
 62
     7
100
AcDbLine
 10
103.2000983335801
 20
2.85233246442567
 30
0.0
 11
107.7432780870676
 21
0.7643866491562222
 31
0.0
  0
LINE
  5
86
330
78
100
AcDbEntity
  8
0
 62
     7
100
AcDbLine
 10
99.71272570963629
 20
-4.73587245071303
 30
0.0
 11
-44.41119242720924
 21
-0.2587198794690266
 31
0.0
  0
LINE
  5
87
330
78
100
AcDbEntity
  8
0
 62
     7
100
AcDbLine
 10
102.8713857624143
 20
-9.836406919659566
 30
0.0
 11
-47.54512995551134
 21
-5.163777290865255
 31
0.0
  0
LINE
  5
88
330
78
100
AcDbEntity
  8
0
 62
     7
100
AcDbLine
 10
40.73524613372422
 20
-10.4073782643045
 30
0.0
 11
11.56976904596286
 21
-9.50136424232096
 31
0.0
  0
LINE
  5
89
330
78
100
AcDbEntity
  8
0
 62
     7
100
AcDbLine
 10
-48.78536196946583
 20
8.465384084479865
 30
0.0
 11
-44.41119242720924
 21
-0.2587198794690266
 31
0.0
  0
LINE
  5
8A
330
78
100
AcDbEntity
  8
0
 62
     7
100
AcDbLine
 10
-53.25501187423788
 20
6.22435090115232
 30
0.0
 11
-47.54512995551112
 21
-5.163777290866163
 31
0.0
  0
LINE
  5
8B
330
78
100
AcDbEntity
  8
0
 62
     7
100
AcDbLine
 10
-48.78536196946561
 20
8.46538408447941
 30
0.0
 11
-53.25501187423765
 21
6.22435090115232
 31
0.0
  0
LINE
  5
8C
330
78
100
AcDbEntity
  8
0
 62
     7
100
AcDbLine
 10
89.72182722245451
 20
8.474980035319275
 30
0.0
 11
89.72182722245451
 21
5.85233246442567
 31
0.0
  0
LINE
  5
8D
330
78
100
AcDbEntity
  8
0
 62
     7
100
AcDbLine
 10
114.2486019822081
 20
5.85233246442567
 30
0.0
 11
114.2486019822081
 21
8.46538408447941
 31
0.0
  0
LINE
  5
8E
330
78
100
AcDbEntity
  8
0
 62
     7
100
AcDbLine
 10
114.2486019822081
 20
8.46538408447941
 30
0.0
 11
34.94893704653623
 21
8.46538408447941
 31
0.0
  0
LINE
  5
8F
330
78
100
AcDbEntity
  8
0
 62
     7
100
AcDbLine
 10
17.71197862285589
 20
8.46538408447941
 30
0.0
 11
-77.11930290466444
 21
8.46538408447941
 31
0.0
  0
SPLINE
  5
90
330
78
100
AcDbEntity
  8
0
 62
     7
100
AcDbSpline
210
0.0
220
0.0
230
1.0
 70
    40
 71
     3
 72
    12
 73
     8
 74
     6
 42
0.0000000001
 43
0.0000000001
 44
0.0000000001
 40
0.0
 40
0.0
 40
0.0
 40
0.0
 40
5.044115551326623
 40
15.43448588604933
 40
27.56618128587151
 40
37.38365067103354
 40
47.20720531347018
 40
47.20720531347018
 40
47.20720531347018
 40
47.20720531347018
 10
-87.03539645197635
 20
53.55187860205024
 30
0.0
 10
-85.95676606030158
 20
52.22204985064099
 30
0.0
 10
-82.65626562823094
 20
48.15290772143455
 30
0.0
 10
-82.73080916537914
 20
38.33757821958347
 30
0.0
 10
-83.58141129937944
 20
27.80693564437918
 30
0.0
 10
-81.94255937792419
 20
17.0898280451415
 30
0.0
 10
-78.72738710807912
 20
11.34079246743916
 30
0.0
 10
-77.11930290466444
 20
8.46538408447941
 30
0.0
 11
-87.03539645197635
 21
53.55187860205024
 31
0.0
 11
-84.15646816839034
 21
49.4100343711425
 31
0.0
 11
-82.8392179741877
 21
39.10350015160203
 31
0.0
 11
-83.12004552126927
 21
26.97505552078201
 31
0.0
 11
-81.39269459757088
 21
17.31074158160391
 31
0.0
 11
-77.11930290466444
 21
8.46538408447941
 31
0.0
  0
LINE
  5
91
330
78
100
AcDbEntity
  8
0
 62
     7
100
AcDbLine
 10
-87.03539645197635
 20
53.55187860205024
 30
0.0
 11
104.2889160709655
 21
53.55187860205115
 31
0.0
  0
LINE
  5
92
330
78
100
AcDbEntity
  8
0
 62
     7
100
AcDbLine
 10
112.2889160709656
 20
8.46538408447941
 30
0.0
 11
112.2889160709656
 21
45.55187860205115
 31
0.0
  0
ARC
  5
93
330
78
100
AcDbEntity
  8
0
 62
     7
100
AcDbCircle
 10
104.2889160709655
 20
45.55187860205115
 30
0.0
 40
8.0
100
AcDbArc
 50
0.0
 51
90.0
  0
LINE
  5
94
330
78
100
AcDbEntity
  8
0
 62
     7
100
AcDbLine
 10
11.64739311321614
 20
-7.00256963207812
 30
0.0
 11
11.56976904596286
 21
-9.501364242321866
 31
0.0
  0
LINE
  5
95
330
78
100
AcDbEntity
  8
0
 62
     7
100
AcDbLine
 10
40.81287020097761
 20
-7.908583654059839
 30
0.0
 11
40.73524613372422
 21
-10.4073782643045
 31
0.0
  0
ARC
  5
96
330
78
100
AcDbEntity
  8
0
 62
     7
100
AcDbCircle
 10
26.42199485585297
 20
-5.51385001201379
 30
0.0
 40
8.179301531451695
100
AcDbArc
 50
211.153746727349
 51
325.2876561675968
  0
LINE
  5
97
330
78
100
AcDbEntity
  8
0
 62
     7
100
AcDbLine
 10
17.71197862285589
 20
28.88089830073204
 30
0.0
 11
17.71197862285589
 21
6.689440853816449
 31
0.0
  0
LINE
  5
98
330
78
100
AcDbEntity
  8
0
 62
     7
100
AcDbLine
 10
17.71197862285589
 20
6.689440853816449
 30
0.0
 11
26.16368152255564
 21
6.689440853816449
 31
0.0
  0
LINE
  5
99
330
78
100
AcDbEntity
  8
0
 62
     7
100
AcDbLine
 10
26.16368152255564
 20
28.88089830073204
 30
0.0
 11
17.71197862285589
 21
28.88089830073204
 31
0.0
  0
LINE
  5
9A
330
78
100
AcDbEntity
  8
0
 62
     7
100
AcDbLine
 10
26.16368152255564
 20
35.89529685575236
 30
0.0
 11
26.16368152255564
 21
-17.20336579651575
 31
0.0
  0
LINE
  5
9B
330
78
100
AcDbEntity
  8
0
 62
     7
100
AcDbLine
 10
24.17911445389291
 20
28.88089830073204
 30
0.0
 11
24.17911445389291
 21
26.5191029505977
 31
0.0
  0
LINE
  5
9C
330
78
100
AcDbEntity
  8
0
 62
     7
100
AcDbLine
 10
24.17911445389291
 20
26.5191029505977
 30
0.0
 11
22.77204418837027
 21
26.5191029505977
 31
0.0
  0
LINE
  5
9D
330
78
100
AcDbEntity
  8
0
 62
     7
100
AcDbLine
 10
22.77204418837027
 20
26.5191029505977
 30
0.0
 11
22.77204418837027
 21
20.1178148116478
 31
0.0
  0
LINE
  5
9E
330
78
100
AcDbEntity
  8
0
 62
     7
100
AcDbLine
 10
22.77204418837027
 20
20.1178148116478
 30
0.0
 11
20.18023176383394
 21
20.1178148116478
 31
0.0
  0
LINE
  5
9F
330
78
100
AcDbEntity
  8
0
 62
     7
100
AcDbLine
 10
20.18023176383394
 20
20.1178148116478
 30
0.0
 11
20.18023176383394
 21
6.689440853816449
 31
0.0
  0
LINE
  5
A0
330
78
100
AcDbEntity
  8
0
 62
     7
100
AcDbLine
 10
20.18023176383394
 20
18.26890371318859
 30
0.0
 11
17.71197862285589
 21
18.26890371318859
 31
0.0
  0
LINE
  5
A1
330
78
100
AcDbEntity
  8
0
 62
     7
100
AcDbLine
 10
20.18023176383394
 20
15.03283029837075
 30
0.0
 11
17.71197862285589
 21
15.03283029837075
 31
0.0
  0
LINE
  5
A2
330
78
100
AcDbEntity
  8
0
 62
     7
100
AcDbLine
 10
20.18023176383394
 20
12.55911975647814
 30
0.0
 11
17.71197862285589
 21
12.55911975647814
 31
0.0
  0
LINE
  5
A3
330
78
100
AcDbEntity
  8
0
 62
     7
100
AcDbLine
 10
20.18023176383394
 20
10.21794926041457
 30
0.0
 11
17.71197862285589
 21
10.21794926041457
 31
0.0
  0
LINE
  5
A4
330
78
100
AcDbEntity
  8
0
 62
     7
100
AcDbLine
 10
22.77204418837027
 20
20.1178148116478
 30
0.0
 11
23.65180321734624
 21
19.54555158900166
 31
0.0
  0
LINE
  5
A5
330
78
100
AcDbEntity
  8
0
 62
     7
100
AcDbLine
 10
23.65180321734624
 20
19.54555158900166
 30
0.0
 11
21.65180321734624
 21
18.2286844427208
 31
0.0
  0
LINE
  5
A6
330
78
100
AcDbEntity
  8
0
 62
     7
100
AcDbLine
 10
21.65180321734624
 20
18.2286844427208
 30
0.0
 11
23.65180321734624
 21
17.26522521746847
 31
0.0
  0
LINE
  5
A7
330
78
100
AcDbEntity
  8
0
 62
     7
100
AcDbLine
 10
23.65180321734624
 20
14.98489884593527
 30
0.0
 11
21.65180321734624
 21
16.30176599221613
 31
0.0
  0
LINE
  5
A8
330
78
100
AcDbEntity
  8
0
 62
     7
100
AcDbLine
 10
21.65180321734624
 20
16.30176599221613
 30
0.0
 11
23.65180321734624
 21
17.26522521746847
 31
0.0
  0
LINE
  5
A9
330
78
100
AcDbEntity
  8
0
 62
     7
100
AcDbLine
 10
23.65180321734624
 20
10.42424610286889
 30
0.0
 11
21.65180321734624
 21
11.74111324914975
 31
0.0
  0
LINE
  5
AA
330
78
100
AcDbEntity
  8
0
 62
     7
100
AcDbLine
 10
21.65180321734624
 20
11.74111324914975
 30
0.0
 11
23.65180321734624
 21
12.70457247440208
 31
0.0
  0
LINE
  5
AB
330
78
100
AcDbEntity
  8
0
 62
     7
100
AcDbLine
 10
23.65180321734624
 20
14.98489884593527
 30
0.0
 11
21.65180321734624
 21
13.66803169965442
 31
0.0
  0
LINE
  5
AC
330
78
100
AcDbEntity
  8
0
 62
     7
100
AcDbLine
 10
21.65180321734624
 20
13.66803169965442
 30
0.0
 11
23.65180321734624
 21
12.70457247440208
 31
0.0
  0
LINE
  5
AD
330
78
100
AcDbEntity
  8
0
 62
     7
100
AcDbLine
 10
23.65180321734624
 20
10.42424610286889
 30
0.0
 11
21.65180321734624
 21
9.107378956588037
 31
0.0
  0
LINE
  5
AE
330
78
100
AcDbEntity
  8
0
 62
     7
100
AcDbLine
 10
21.65180321734624
 20
9.107378956588037
 30
0.0
 11
23.65180321734624
 21
8.143919731335699
 31
0.0
  0
LINE
  5
AF
330
78
100
AcDbEntity
  8
0
 62
     7
100
AcDbLine
 10
34.61538442225537
 20
28.88089830073204
 30
0.0
 11
34.61538442225537
 21
6.689440853816449
 31
0.0
  0
LINE
  5
B0
330
78
100
AcDbEntity
  8
0
 62
     7
100
AcDbLine
 10
34.61538442225537
 20
6.689440853816449
 30
0.0
 11
26.16368152255564
 21
6.689440853816449
 31
0.0
  0
LINE
  5
B1
330
78
100
AcDbEntity
  8
0
 62
     7
100
AcDbLine
 10
26.16368152255564
 20
28.88089830073204
 30
0.0
 11
34.61538442225537
 21
28.88089830073204
 31
0.0
  0
LINE
  5
B2
330
78
100
AcDbEntity
  8
0
 62
     7
100
AcDbLine
 10
28.14824859121836
 20
28.88089830073204
 30
0.0
 11
28.14824859121836
 21
26.5191029505977
 31
0.0
  0
LINE
  5
B3
330
78
100
AcDbEntity
  8
0
 62
     7
100
AcDbLine
 10
28.14824859121836
 20
26.5191029505977
 30
0.0
 11
29.555318856741
 21
26.5191029505977
 31
0.0
  0
LINE
  5
B4
330
78
100
AcDbEntity
  8
0
 62
     7
100
AcDbLine
 10
29.555318856741
 20
26.5191029505977
 30
0.0
 11
29.555318856741
 21
20.1178148116478
 31
0.0
  0
LINE
  5
B5
330
78
100
AcDbEntity
  8
0
 62
     7
100
AcDbLine
 10
29.555318856741
 20
20.1178148116478
 30
0.0
 11
32.14713128127733
 21
20.1178148116478
 31
0.0
  0
LINE
  5
B6
330
78
100
AcDbEntity
  8
0
 62
     7
100
AcDbLine
 10
32.14713128127733
 20
20.1178148116478
 30
0.0
 11
32.14713128127733
 21
6.689440853816449
 31
0.0
  0
LINE
  5
B7
330
78
100
AcDbEntity
  8
0
 62
     7
100
AcDbLine
 10
32.14713128127733
 20
18.26890371318859
 30
0.0
 11
34.61538442225537
 21
18.26890371318859
 31
0.0
  0
LINE
  5
B8
330
78
100
AcDbEntity
  8
0
 62
     7
100
AcDbLine
 10
32.14713128127733
 20
15.03283029837075
 30
0.0
 11
34.61538442225537
 21
15.03283029837075
 31
0.0
  0
LINE
  5
B9
330
78
100
AcDbEntity
  8
0
 62
     7
100
AcDbLine
 10
32.14713128127733
 20
12.55911975647814
 30
0.0
 11
34.61538442225537
 21
12.55911975647814
 31
0.0
  0
LINE
  5
BA
330
78
100
AcDbEntity
  8
0
 62
     7
100
AcDbLine
 10
32.14713128127733
 20
10.21794926041457
 30
0.0
 11
34.61538442225537
 21
10.21794926041457
 31
0.0
  0
LINE
  5
BB
330
78
100
AcDbEntity
  8
0
 62
     7
100
AcDbLine
 10
29.555318856741
 20
20.1178148116478
 30
0.0
 11
28.67555982776503
 21
19.54555158900166
 31
0.0
  0
LINE
  5
BC
330
78
100
AcDbEntity
  8
0
 62
     7
100
AcDbLine
 10
28.67555982776503
 20
19.54555158900166
 30
0.0
 11
30.67555982776503
 21
18.2286844427208
 31
0.0
  0
LINE
  5
BD
330
78
100
AcDbEntity
  8
0
 62
     7
100
AcDbLine
 10
30.67555982776503
 20
18.2286844427208
 30
0.0
 11
28.67555982776503
 21
17.26522521746847
 31
0.0
  0
LINE
  5
BE
330
78
100
AcDbEntity
  8
0
 62
     7
100
AcDbLine
 10
28.67555982776503
 20
14.98489884593527
 30
0.0
 11
30.67555982776503
 21
16.30176599221613
 31
0.0
  0
LINE
  5
BF
330
78
100
AcDbEntity
  8
0
 62
     7
100
AcDbLine
 10
30.67555982776503
 20
16.30176599221613
 30
0.0
 11
28.67555982776503
 21
17.26522521746847
 31
0.0
  0
LINE
  5
C0
330
78
100
AcDbEntity
  8
0
 62
     7
100
AcDbLine
 10
28.67555982776503
 20
10.42424610286889
 30
0.0
 11
30.67555982776503
 21
11.74111324914975
 31
0.0
  0
LINE
  5
C1
330
78
100
AcDbEntity
  8
0
 62
     7
100
AcDbLine
 10
30.67555982776503
 20
11.74111324914975
 30
0.0
 11
28.67555982776503
 21
12.70457247440208
 31
0.0
  0
LINE
  5
C2
330
78
100
AcDbEntity
  8
0
 62
     7
100
AcDbLine
 10
28.67555982776503
 20
14.98489884593527
 30
0.0
 11
30.67555982776503
 21
13.66803169965442
 31
0.0
  0
LINE
  5
C3
330
78
100
AcDbEntity
  8
0
 62
     7
100
AcDbLine
 10
30.67555982776503
 20
13.66803169965442
 30
0.0
 11
28.67555982776503
 21
12.70457247440208
 31
0.0
  0
LINE
  5
C4
330
78
100
AcDbEntity
  8
0
 62
     7
100
AcDbLine
 10
28.67555982776503
 20
10.42424610286889
 30
0.0
 11
30.67555982776503
 21
9.107378956588037
 31
0.0
  0
LINE
  5
C5
330
78
100
AcDbEntity
  8
0
 62
     7
100
AcDbLine
 10
30.67555982776503
 20
9.107378956588037
 30
0.0
 11
28.67555982776503
 21
8.143919731335699
 31
0.0
  0
ARC
  5
C6
330
78
100
AcDbEntity
  8
0
 62
     7
100
AcDbCircle
 10
26.16368152255564
 20
19.19970613252917
 30
0.0
 40
5.750135146985215
100
AcDbArc
 50
53.85462122643402
 51
126.1453787735659
  0
LINE
  5
C7
330
78
100
AcDbEntity
  8
0
 62
     7
100
AcDbLine
 10
21.93783007270576
 20
28.88089830073204
 30
0.0
 11
17.71197862285589
 21
24.46719563034549
 31
0.0
  0
LINE
  5
C8
330
78
100
AcDbEntity
  8
0
 62
     7
100
AcDbLine
 10
22.77204418837027
 20
25.18756816805035
 30
0.0
 11
17.71197862285589
 21
20.6625138265108
 31
0.0
  0
LINE
  5
C9
330
78
100
AcDbEntity
  8
0
 62
     7
100
AcDbLine
 10
30.38953297240551
 20
28.88089830073204
 30
0.0
 11
34.61538442225537
 21
24.46719563034549
 31
0.0
  0
LINE
  5
CA
330
78
100
AcDbEntity
  8
0
 62
     7
100
AcDbLine
 10
29.555318856741
 20
25.18756816805035
 30
0.0
 11
34.61538442225537
 21
20.6625138265108
 31
0.0
  0
LINE
  5
CB
330
78
100
AcDbEntity
  8
0
 62
     7
100
AcDbLine
 10
23.65180321734624
 20
8.143919731335699
 30
0.0
 11
23.65180321734624
 21
6.196312024420876
 31
0.0
  0
LINE
  5
CC
330
78
100
AcDbEntity
  8
0
 62
     7
100
AcDbLine
 10
23.65180321734624
 20
6.196312024420876
 30
0.0
 11
22.36868525488354
 21
4.584610898650676
 31
0.0
  0
LINE
  5
CD
330
78
100
AcDbEntity
  8
0
 62
     7
100
AcDbLine
 10
22.36868525488354
 20
4.584610898650676
 30
0.0
 11
23.66676819052191
 21
3.262784771063707
 31
0.0
  0
LINE
  5
CE
330
78
100
AcDbEntity
  8
0
 62
     7
100
AcDbLine
 10
23.66676819052191
 20
3.262784771063707
 30
0.0
 11
22.3936268768357
 21
2.240236385440766
 31
0.0
  0
LINE
  5
CF
330
78
100
AcDbEntity
  8
0
 62
     7
100
AcDbLine
 10
22.3936268768357
 20
2.240236385440766
 30
0.0
 11
23.71668166669952
 21
0.6939519513825873
 31
0.0
  0
LINE
  5
D0
330
78
100
AcDbEntity
  8
0
 62
     7
100
AcDbLine
 10
23.71668166669952
 20
0.6939519513825873
 30
0.0
 11
22.33137863489355
 21
-0.3292243571968356
 31
0.0
  0
LINE
  5
D1
330
78
100
AcDbEntity
  8
0
 62
     7
100
AcDbLine
 10
22.33137863489355
 20
-0.3292243571968356
 30
0.0
 11
22.33137863489355
 21
-8.504588058528497
 31
0.0
  0
LINE
  5
D2
330
78
100
AcDbEntity
  8
0
 62
     7
100
AcDbLine
 10
28.67555982776503
 20
8.143919731335699
 30
0.0
 11
28.67555982776503
 21
6.196312024420876
 31
0.0
  0
LINE
  5
D3
330
78
100
AcDbEntity
  8
0
 62
     7
100
AcDbLine
 10
28.67555982776503
 20
6.196312024420876
 30
0.0
 11
29.95867779022774
 21
4.584610898650676
 31
0.0
  0
LINE
  5
D4
330
78
100
AcDbEntity
  8
0
 62
     7
100
AcDbLine
 10
29.95867779022774
 20
4.584610898650676
 30
0.0
 11
28.66059485458936
 21
3.262784771063707
 31
0.0
  0
LINE
  5
D5
330
78
100
AcDbEntity
  8
0
 62
     7
100
AcDbLine
 10
28.66059485458936
 20
3.262784771063707
 30
0.0
 11
29.93373616827557
 21
2.240236385440766
 31
0.0
  0
LINE
  5
D6
330
78
100
AcDbEntity
  8
0
 62
     7
100
AcDbLine
 10
29.93373616827557
 20
2.240236385440766
 30
0.0
 11
28.61068137841176
 21
0.6939519513825873
 31
0.0
  0
LINE
  5
D7
330
78
100
AcDbEntity
  8
0
 62
     7
100
AcDbLine
 10
28.61068137841176
 20
0.6939519513825873
 30
0.0
 11
29.99598441021772
 21
-0.3292243571968356
 31
0.0
  0
LINE
  5
D8
330
78
100
AcDbEntity
  8
0
 62
     7
100
AcDbLine
 10
29.99598441021772
 20
-0.3292243571968356
 30
0.0
 11
29.99598441021772
 21
-8.504588058528497
 31
0.0
  0
LINE
  5
D9
330
78
100
AcDbEntity
  8
0
 62
     7
100
AcDbLine
 10
29.99598441021772
 20
-8.504588058528497
 30
0.0
 11
22.33137863489355
 21
-8.504588058528497
 31
0.0
  0
LINE
  5
DA
330
78
100
AcDbEntity
  8
0
 62
     7
100
AcDbLine
 10
131.4718868992112
 20
-68.11360423731184
 30
0.0
 11
128.4718868992113
 21
-68.11360423731184
 31
0.0
  0
HATCH
  5
DB
330
78
100
AcDbEntity
  8
0
 62
     7
100
AcDbHatch
 10
0.0
 20
0.0
 30
0.0
210
0.0
220
0.0
230
1.0
  2
ANSI31
 70
     0
 71
     0
 91
        1
 92
        5
 93
       10
 72
     2
 10
104.2889160709655
 20
45.55187860205115
 40
8.0
 50
0.0
 51
90.0
 73
     1
 72
     1
 10
104.2889160709655
 20
53.55187860205115
 11
-87.03539645197681
 21
53.55187860205115
 72
     4
 94
        3
 73
     0
 74
     0
 95
       12
 96
        8
 40
0.0
 40
0.0
 40
0.0
 40
0.0
 40
5.044115551326623
 40
15.43448588604934
 40
27.56618128587152
 40
37.38365067103357
 40
47.20720531347018
 40
47.20720531347018
 40
47.20720531347018
 40
47.20720531347018
 10
-87.03539645197635
 20
53.55187860205024
 10
-85.95676606030158
 20
52.22204985064081
 10
-82.65626562823081
 20
48.15290772143454
 10
-82.73080916537924
 20
38.33757821958353
 10
-83.58141129937939
 20
27.80693564437934
 10
-81.94255937792423
 20
17.08982804514153
 10
-78.72738710807903
 20
11.34079246743931
 10
-77.11930290466444
 20
8.46538408447941
 72
     1
 10
-77.11930290466444
 20
8.46538408447941
 11
17.71197862285589
 21
8.46538408447941
 72
     1
 10
17.71197862285589
 20
8.46538408447941
 11
17.71197862285612
 21
28.8808983007325
 72
     1
 10
17.71197862285612
 20
28.8808983007325
 11
26.16368152255564
 21
28.88089830073204
 72
     1
 10
26.16368152255564
 20
28.88089830073204
 11
34.61538442225537
 21
28.88089830073204
 72
     1
 10
34.61538442225537
 20
28.88089830073204
 11
34.61538442225515
 21
8.46538408447941
 72
     1
 10
34.61538442225515
 20
8.46538408447941
 11
112.2889160709653
 21
8.465384084479865
 72
     1
 10
112.2889160709653
 20
8.465384084479865
 11
112.2889160709656
 21
45.55187860205115
 97
        0
 75
     0
 76
     1
 52
0.0
 41
25.0
 77
     0
 78
     1
 53
45.0
 43
-1354.086106484478
 44
-3682.020655043672
 45
-2.209708691207957
 46
2.209708691207957
 79
     0
 47
0.3407784301668528
 98
        1
 10
63.63743172773502
 20
39.00029729870766
1001
ACAD
1010
0.0
1020
0.0
1030
0.0
  0
ENDBLK
  5
DC
330
78
100
AcDbEntity
  8
0
 62
     7
100
AcDbBlockEnd
  0
BLOCK
  5
E0
330
DD
100
AcDbEntity
  8
0
 62
     7
100
AcDbBlockBegin
  2
A$C40C2364E
 70
     0
 10
0.0
 20
0.0
 30
0.0
  3
A$C40C2364E
  1

  0
INSERT
  5
E1
330
DD
100
AcDbEntity
  8
0
 62
     7
100
AcDbBlockReference
  2
A$C7B7D6155
 10
32.52107706848256
 20
-19.82535338705929
 30
0.0
 41
0.6500000000000911
 42
0.6500000000000911
 43
0.6500000000000911
  0
LINE
  5
E2
330
DD
100
AcDbEntity
  8
0
 62
     7
100
AcDbLine
 10
6.338922132137891
 20
14.98336770427386
 30
0.0
 11
-0.5668338735704312
 21
26.11045444281717
 31
0.0
  0
LINE
  5
E3
330
DD
100
AcDbEntity
  8
0
 62
     7
100
AcDbLine
 10
-0.5668338735704312
 20
26.11045444281717
 30
0.0
 11
-4.170457308955517
 21
26.11045444281717
 31
0.0
  0
MTEXT
  5
E4
330
DD
100
AcDbEntity
  8
0
 62
     7
100
AcDbMText
 10
-53.83781552087747
 20
29.9927615165243
 30
0.0
 40
5.0
 41
30.03556079984628
 71
     1
 72
     5
  1
{\fArial|b0|i0|c0|p34;COUNTERTOP}
 73
     1
 44
1.0
1001
ACAD
1000
MTEXTBEGIN
1070
    73
1070
     1
1070
    44
1040
1.0
1070
    74
1070
     0
1000
MTEXTEND
  0
LINE
  5
E5
330
DD
100
AcDbEntity
  8
0
 62
     7
100
AcDbLine
 10
17.26247024328222
 20
-23.66783697356254
 30
0.0
 11
-0.3725853457581252
 21
-36.31629570176574
 31
0.0
  0
LINE
  5
E6
330
DD
100
AcDbEntity
  8
0
 62
     7
100
AcDbLine
 10
-0.3725853457581252
 20
-36.31629570176574
 30
0.0
 11
-2.548959822626783
 21
-36.31629570176574
 31
0.0
  0
MTEXT
  5
E7
330
DD
100
AcDbEntity
  8
0
 62
     7
100
AcDbMText
 10
-39.41373040020699
 20
-33.13097170890888
 30
0.0
 40
5.0
 41
30.03556079984628
 71
     1
 72
     5
  1
{\fArial|b0|i0|c0|p34;FASTENER}
 73
     1
 44
1.0
1001
ACAD
1000
MTEXTBEGIN
1070
    73
1070
     1
1070
    44
1040
1.0
1070
    74
1070
     0
1000
MTEXTEND
  0
LINE
  5
E8
330
DD
100
AcDbEntity
  8
0
 62
     7
100
AcDbLine
 10
47.76329757453095
 20
-28.36240980849374
 30
0.0
 11
39.26546135457466
 21
-42.82151377184436
 31
0.0
  0
LINE
  5
E9
330
DD
100
AcDbEntity
  8
0
 62
     7
100
AcDbLine
 10
39.26546135457466
 20
-42.82151377184436
 30
0.0
 11
37.45967632953762
 21
-42.82151377184436
 31
0.0
  0
MTEXT
  5
EA
330
DD
100
AcDbEntity
  8
0
 62
     7
100
AcDbMText
 10
6.606316476056234
 20
-39.84446683050101
 30
0.0
 40
5.0
 41
30.03556079984628
 71
     1
 72
     5
  1
{\fArial|b0|i0|c0|p34;SCREWS}
 73
     1
 44
1.0
1001
ACAD
1000
MTEXTBEGIN
1070
    73
1070
     1
1070
    44
1040
1.0
1070
    74
1070
     0
1000
MTEXTEND
  0
LINE
  5
EB
330
DD
100
AcDbEntity
  8
0
 62
     7
100
AcDbLine
 10
117.9778035529668
 20
-21.22133728518264
 30
0.0
 11
138.335703353383
 21
-3.005332937282219
 31
0.0
  0
LINE
  5
EC
330
DD
100
AcDbEntity
  8
0
 62
     7
100
AcDbLine
 10
138.335703353383
 20
-3.005332937282219
 30
0.0
 11
142.454008693403
 21
-3.005332937282219
 31
0.0
  0
MTEXT
  5
ED
330
DD
100
AcDbEntity
  8
0
 62
     7
100
AcDbMText
 10
143.0422429851278
 20
0.1642339645859465
 30
0.0
 40
5.0
 41
30.03556079984628
 71
     1
 72
     5
  1
{\fArial|b0|i0|c0|p34;SINK}
 73
     1
 44
1.0
1001
ACAD
1000
MTEXTBEGIN
1070
    73
1070
     1
1070
    44
1040
1.0
1070
    74
1070
     0
1000
MTEXTEND
  0
ENDBLK
  5
EE
330
DD
100
AcDbEntity
  8
0
 62
     7
100
AcDbBlockEnd
  0
BLOCK
  5
F2
330
EF
100
AcDbEntity
  8
0
 62
     7
100
AcDbBlockBegin
  2
A$C00A4450E
 70
     0
 10
0.0
 20
0.0
 30
0.0
  3
A$C00A4450E
  1

  0
ARC
  5
F3
330
EF
100
AcDbEntity
  8
0
  6
Continuous
 62
     7
100
AcDbCircle
 10
-540.8625239967731
 20
4750.272820953438
 30
0.0
 40
5020.5
100
AcDbArc
 50
268.4347899831747
 51
270.0288808381014
  0
ARC
  5
F4
330
EF
100
AcDbEntity
  8
0
  6
Continuous
 62
     7
100
AcDbCircle
 10
-674.977556635771
 20
-157.8951833043847
 30
0.0
 40
110.5
100
AcDbArc
 50
188.5669944425301
 51
268.4347899831747
  0
LINE
  5
F5
330
EF
100
AcDbEntity
  8
0
 62
     7
100
AcDbLine
 10
-99.74106269425817
 20
-270.227179046562
 30
0.0
 11
-538.3295938818698
 21
-270.227179046562
 31
0.0
  0
ARC
  5
F6
330
EF
100
AcDbEntity
  8
0
 62
     7
100
AcDbCircle
 10
-99.74106269425817
 20
-169.727179046562
 30
0.0
 40
100.5
100
AcDbArc
 50
270.0
 51
356.3420558554422
  0
ARC
  5
F7
330
EF
100
AcDbEntity
  8
0
  6
Continuous
 62
     7
100
AcDbCircle
 10
-3081.199950068203
 20
-48.86499710782118
 30
0.0
 40
3084.381180900009
100
AcDbArc
 50
357.6350725675832
 51
2.467152855850744
  0
LINE
  5
F8
330
EF
100
AcDbEntity
  8
0
 62
     7
100
AcDbLine
 10
-95.08733940157242
 20
175.7634357685074
 30
0.0
 11
-283.8836982500615
 21
175.7634357685001
 31
0.0
  0
LINE
  5
F9
330
EF
100
AcDbEntity
  8
CENTER
 62
     7
100
AcDbLine
 10
-226.8294793430031
 20
42.77345933507445
 30
0.0
 11
-72.82947934300306
 21
42.77345933507445
 31
0.0
  0
CIRCLE
  5
FA
330
EF
100
AcDbEntity
  8
0
 62
     7
100
AcDbCircle
 10
-149.8294793430031
 20
42.77345933506693
 30
0.0
 40
57.0
  0
CIRCLE
  5
FB
330
EF
100
AcDbEntity
  8
0
 62
     7
100
AcDbCircle
 10
-149.8294793430031
 20
42.77345933506693
 30
0.0
 40
46.0
  0
CIRCLE
  5
FC
330
EF
100
AcDbEntity
  8
0
 62
     7
100
AcDbCircle
 10
-539.3294793430103
 20
68.27345933506696
 30
0.0
 40
46.0
  0
CIRCLE
  5
FD
330
EF
100
AcDbEntity
  8
0
 62
     7
100
AcDbCircle
 10
-539.3294793430103
 20
68.27345933506696
 30
0.0
 40
57.0
  0
LINE
  5
FE
330
EF
100
AcDbEntity
  8
CENTER
 62
     7
100
AcDbLine
 10
-616.3294793430102
 20
68.27345933507444
 30
0.0
 11
-462.3294793430103
 21
68.27345933507444
 31
0.0
  0
LINE
  5
FF
330
EF
100
AcDbEntity
  8
CENTER
 62
     7
100
AcDbLine
 10
-149.8294793430031
 20
-34.22654066493306
 30
0.0
 11
-149.8294793430031
 21
119.7734593350669
 31
0.0
  0
LINE
  5
100
330
EF
100
AcDbEntity
  8
CENTER
 62
     7
100
AcDbLine
 10
-539.3294793430031
 20
145.2734593350669
 30
0.0
 11
-539.3294793430031
 21
-8.726540664933052
 31
0.0
  0
ARC
  5
101
330
EF
100
AcDbEntity
  8
0
 62
     7
100
AcDbCircle
 10
-149.8294793430031
 20
2750.273459335074
 30
0.0
 40
3000.4995888423
100
AcDbArc
 50
268.9276318946516
 51
271.0723681053484
  0
ARC
  5
102
330
EF
100
AcDbEntity
  8
0
 62
     7
100
AcDbCircle
 10
-95.08733940069928
 20
-174.2142390686294
 30
0.0
 40
75.4995888423
100
AcDbArc
 50
271.0723681053484
 51
357.5117447070682
  0
ARC
  5
103
330
EF
100
AcDbEntity
  8
0
 62
     7
100
AcDbCircle
 10
-3017.329479343003
 20
-47.22654066493304
 30
0.0
 40
3000.4995888423
100
AcDbArc
 50
357.5117447070682
 51
2.48825529293177
  0
ARC
  5
104
330
EF
100
AcDbEntity
  8
0
 62
     7
100
AcDbCircle
 10
-95.08733940069928
 20
79.76115773877063
 30
0.0
 40
75.4995888423
100
AcDbArc
 50
2.48825529293177
 51
88.92763189465156
  0
ARC
  5
105
330
EF
100
AcDbEntity
  8
0
 62
     7
100
AcDbCircle
 10
-95.98188663598184
 20
79.35600940702534
 30
0.0
 40
96.41157644390457
100
AcDbArc
 50
2.70572181996231
 51
89.46837798444262
  0
ARC
  5
106
330
EF
100
AcDbEntity
  8
0
 62
     7
100
AcDbCircle
 10
-149.8294793430031
 20
-2844.726540664926
 30
0.0
 40
3000.4995888423
100
AcDbArc
 50
88.92763189465156
 51
91.07236810534843
  0
ARC
  5
107
330
EF
100
AcDbEntity
  8
0
 62
     7
100
AcDbCircle
 10
-204.571619285205
 20
79.76115773877063
 30
0.0
 40
75.4995888423
100
AcDbArc
 50
91.07236810534843
 51
177.5117447070682
  0
ARC
  5
108
330
EF
100
AcDbEntity
  8
0
 62
     7
100
AcDbCircle
 10
2717.670520656997
 20
-47.22654066493304
 30
0.0
 40
3000.4995888423
100
AcDbArc
 50
177.5117447070682
 51
182.4882552929318
  0
ARC
  5
109
330
EF
100
AcDbEntity
  8
0
 62
     7
100
AcDbCircle
 10
-204.571619285205
 20
-174.2142390686294
 30
0.0
 40
75.4995888423
100
AcDbArc
 50
182.4882552929318
 51
268.9276318946516
  0
ARC
  5
10A
330
EF
100
AcDbEntity
  8
0
 62
     7
100
AcDbCircle
 10
-5314.329479343003
 20
-97.72654066493307
 30
0.0
 40
5000.5
100
AcDbArc
 50
359.186215875391
 51
1.895730659580573
  0
ARC
  5
10B
330
EF
100
AcDbEntity
  8
0
 62
     7
100
AcDbCircle
 10
-466.983963428407
 20
62.71487962036736
 30
0.0
 40
150.5
100
AcDbArc
 50
1.895730659580573
 51
78.07088011666862
  0
ARC
  5
10C
330
EF
100
AcDbEntity
  8
0
 62
     7
100
AcDbCircle
 10
-466.983963428407
 20
62.71487962036736
 30
0.0
 40
170.5
100
AcDbArc
 50
55.15937308967934
 51
78.07088011666862
  0
ARC
  5
10D
330
EF
100
AcDbEntity
  8
0
 62
     7
100
AcDbCircle
 10
-283.8836982500578
 20
325.7634357685001
 30
0.0
 40
150.0
100
AcDbArc
 50
235.1593730896794
 51
270.0
  0
ARC
  5
10E
330
EF
100
AcDbEntity
  8
0
 62
     7
100
AcDbCircle
 10
-539.3294793430031
 20
-279.726540664933
 30
0.0
 40
500.4999999999998
100
AcDbArc
 50
78.07088011666862
 51
101.9291198833313
  0
ARC
  5
10F
330
EF
100
AcDbEntity
  8
0
 62
     7
100
AcDbCircle
 10
-539.3294793430031
 20
-279.726540664933
 30
0.0
 40
520.5
100
AcDbArc
 50
78.07088011666862
 51
101.9291198833313
  0
ARC
  5
110
330
EF
100
AcDbEntity
  8
0
 62
     7
100
AcDbCircle
 10
-611.6749952575045
 20
62.71487962036736
 30
0.0
 40
150.5
100
AcDbArc
 50
101.9291198833313
 51
178.1042693404194
  0
ARC
  5
111
330
EF
100
AcDbEntity
  8
0
 62
     7
100
AcDbCircle
 10
-611.6749952575045
 20
62.71487962036736
 30
0.0
 40
170.5
100
AcDbArc
 50
101.9291198833313
 51
178.1042693404194
  0
ARC
  5
112
330
EF
100
AcDbEntity
  8
0
 62
     7
100
AcDbCircle
 10
4235.670520656997
 20
-97.72654066493307
 30
0.0
 40
5000.5
100
AcDbArc
 50
178.1042693404194
 51
180.813784124609
  0
ARC
  5
113
330
EF
100
AcDbEntity
  8
0
 62
     7
100
AcDbCircle
 10
4235.670520656997
 20
-97.72654066493307
 30
0.0
 40
5020.5
100
AcDbArc
 50
178.1042693404194
 51
180.8745561659184
  0
ARC
  5
114
330
EF
100
AcDbEntity
  8
0
 62
     7
100
AcDbCircle
 10
-683.8332288309028
 20
-167.6039960703292
 30
0.0
 40
80.5
100
AcDbArc
 50
180.813784124609
 51
268.3169419119461
  0
ARC
  5
115
330
EF
100
AcDbEntity
  8
0
 62
     7
100
AcDbCircle
 10
-539.3294793430031
 20
4750.273459335074
 30
0.0
 40
5000.5
100
AcDbArc
 50
268.3169419119461
 51
271.6830580878451
  0
ARC
  5
116
330
EF
100
AcDbEntity
  8
0
 62
     7
100
AcDbCircle
 10
-394.8257298550014
 20
-167.6039960703292
 30
0.0
 40
80.5
100
AcDbArc
 50
271.6830580878451
 51
359.186215875391
  0
ENDBLK
  5
117
330
EF
100
AcDbEntity
  8
0
 62
     7
100
AcDbBlockEnd
  0
BLOCK
  5
2C5
330
2C2
100
AcDbEntity
  8
0
 62
     7
100
AcDbBlockBegin
  2
A$C5B367DAB
 70
     0
 10
0.0
 20
0.0
 30
0.0
  3
A$C5B367DAB
  1

  0
ARC
  5
2C6
330
2C2
100
AcDbEntity
  8
0
 62
     7
100
AcDbCircle
 10
396.4346756192572
 20
5025.000004021424
 30
0.0
 40
5000.0
100
AcDbArc
 50
266.7115708091238
 51
273.2884291908762
  0
ARC
  5
2C7
330
2C2
100
AcDbEntity
  8
0
 62
     7
100
AcDbCircle
 10
396.4346756192572
 20
5025.000004021424
 30
0.0
 40
5025.0
100
AcDbArc
 50
266.7115708091238
 51
273.2884291908762
  0
ARC
  5
2C8
330
2C2
100
AcDbEntity
  8
0
 62
     7
100
AcDbCircle
 10
396.4346756192572
 20
-4564.99999597858
 30
0.0
 40
5000.0
100
AcDbArc
 50
86.71145538400322
 51
93.2885446159968
  0
ARC
  5
2C9
330
2C2
100
AcDbEntity
  8
0
 62
     7
100
AcDbCircle
 10
396.4346756192572
 20
-4564.99999597858
 30
0.0
 40
5025.0
100
AcDbArc
 50
86.71145538400322
 51
93.2885446159968
  0
ARC
  5
2CA
330
2C2
100
AcDbEntity
  8
0
 62
     7
100
AcDbCircle
 10
1821.434675619283
 20
230.0785375413198
 30
0.0
 40
1800.000000000029
100
AcDbArc
 50
176.417980980817
 51
183.587311120874
  0
ARC
  5
2CB
330
2C2
100
AcDbEntity
  8
0
 62
     7
100
AcDbCircle
 10
1821.434675619283
 20
230.0785375413198
 30
0.0
 40
1825.000000000029
100
AcDbArc
 50
176.417980980817
 51
183.587311120874
  0
ARC
  5
2CC
330
2C2
100
AcDbEntity
  8
0
 62
     7
100
AcDbCircle
 10
114.7852330102869
 20
123.0847057448318
 30
0.0
 40
90.0
100
AcDbArc
 50
183.587311120874
 51
266.7115708091238
  0
ARC
  5
2CD
330
2C2
100
AcDbEntity
  8
0
 62
     7
100
AcDbCircle
 10
114.7852330102869
 20
123.0847057448318
 30
0.0
 40
115.0
100
AcDbArc
 50
183.587311120874
 51
266.7115708091238
  0
ARC
  5
2CE
330
2C2
100
AcDbEntity
  8
0
 62
     7
100
AcDbCircle
 10
114.775357847855
 20
336.9147348906281
 30
0.0
 40
90.0
100
AcDbArc
 50
93.2885446159968
 51
176.417980980817
  0
ARC
  5
2CF
330
2C2
100
AcDbEntity
  8
0
 62
     7
100
AcDbCircle
 10
114.775357847855
 20
336.9147348906281
 30
0.0
 40
115.0
100
AcDbArc
 50
93.2885446159968
 51
176.417980980817
  0
CIRCLE
  5
2D0
330
2C2
100
AcDbEntity
  8
0
 62
     7
100
AcDbCircle
 10
396.4346756192572
 20
230.00000402142
 30
0.0
 40
57.0
  0
CIRCLE
  5
2D1
330
2C2
100
AcDbEntity
  8
0
 62
     7
100
AcDbCircle
 10
396.4346756192572
 20
230.00000402142
 30
0.0
 40
46.0
  0
ARC
  5
2D2
330
2C2
100
AcDbEntity
  8
0
 62
     7
100
AcDbCircle
 10
678.0841182282272
 20
123.0847057448318
 30
0.0
 40
90.0
100
AcDbArc
 50
273.2884291908762
 51
356.412688879126
  0
ARC
  5
2D3
330
2C2
100
AcDbEntity
  8
0
 62
     7
100
AcDbCircle
 10
678.0841182282272
 20
123.0847057448318
 30
0.0
 40
115.0
100
AcDbArc
 50
273.2884291908762
 51
356.412688879126
  0
ARC
  5
2D4
330
2C2
100
AcDbEntity
  8
0
 62
     7
100
AcDbCircle
 10
-1028.565324380743
 20
230.0785375413161
 30
0.0
 40
1800.0
100
AcDbArc
 50
356.412688879126
 51
3.582019019183004
  0
ARC
  5
2D5
330
2C2
100
AcDbEntity
  8
0
 62
     7
100
AcDbCircle
 10
-1028.565324380743
 20
230.0785375413161
 30
0.0
 40
1825.0
100
AcDbArc
 50
356.412688879126
 51
3.582019019183004
  0
ARC
  5
2D6
330
2C2
100
AcDbEntity
  8
0
 62
     7
100
AcDbCircle
 10
678.093993390652
 20
336.9147348906281
 30
0.0
 40
90.0
100
AcDbArc
 50
3.582019019183004
 51
86.71145538400322
  0
ARC
  5
2D7
330
2C2
100
AcDbEntity
  8
0
 62
     7
100
AcDbCircle
 10
678.093993390652
 20
336.9147348906281
 30
0.0
 40
115.0
100
AcDbArc
 50
3.582019019183004
 51
86.71145538400322
  0
ENDBLK
  5
2D8
330
2C2
100
AcDbEntity
  8
0
 62
     7
100
AcDbBlockEnd
  0
BLOCK
  5
462
330
461
100
AcDbEntity
  8
0
100
AcDbBlockBegin
  2
*D5
 70
     1
 10
0.0
 20
0.0
 30
0.0
  3
*D5
  1

  0
LINE
  5
563
330
461
100
AcDbEntity
  8
0
 62
     0
370
    -2
100
AcDbLine
 10
942.2151799394256
 20
800.9788492320225
 30
0.0
 11
1285.954438897469
 21
800.9788492320224
 31
0.0
  0
LINE
  5
564
330
461
100
AcDbEntity
  8
0
 62
     0
370
    -2
100
AcDbLine
 10
942.2151799394256
 20
308.2788492320227
 30
0.0
 11
1285.954438897469
 21
308.2788492320227
 31
0.0
  0
LINE
  5
565
330
461
100
AcDbEntity
  8
0
 62
     0
370
    -2
100
AcDbLine
 10
1275.954438897469
 20
790.9788492320225
 30
0.0
 11
1275.954438897469
 21
581.2955158986892
 31
0.0
  0
LINE
  5
566
330
461
100
AcDbEntity
  8
0
 62
     0
370
    -2
100
AcDbLine
 10
1275.954438897469
 20
318.2788492320227
 30
0.0
 11
1275.954438897469
 21
527.962182565356
 31
0.0
  0
SOLID
  5
567
330
461
100
AcDbEntity
  8
0
 62
     0
100
AcDbTrace
 10
1274.287772230803
 20
790.9788492320225
 30
0.0
 11
1277.621105564136
 21
790.9788492320225
 31
0.0
 12
1275.954438897469
 22
800.9788492320225
 32
0.0
 13
1275.954438897469
 23
800.9788492320225
 33
0.0
  0
SOLID
  5
568
330
461
100
AcDbEntity
  8
0
 62
     0
100
AcDbTrace
 10
1274.287772230802
 20
318.2788492320227
 30
0.0
 11
1277.621105564136
 21
318.2788492320227
 31
0.0
 12
1275.954438897469
 22
308.2788492320227
 32
0.0
 13
1275.954438897469
 23
308.2788492320227
 33
0.0
  0
MTEXT
  5
569
330
461
100
AcDbEntity
  8
0
 62
     0
100
AcDbMText
 10
1275.954438897469
 20
554.6288492320227
 30
0.0
 40
20.0
 41
0.0
 71
     5
 72
     1
  1
\A1;19{\H0.800000x;\S3/8;}"
 73
     1
 44
1.0
1001
ACAD
1000
MTEXTBEGIN
1070
    73
1070
     1
1070
    44
1040
1.0
1070
    74
1070
     0
1000
MTEXTEND
  0
POINT
  5
56A
330
461
100
AcDbEntity
  8
DEFPOINTS
 62
     0
100
AcDbPoint
 10
939.0901799394256
 20
800.9788492320225
 30
0.0
  0
POINT
  5
56B
330
461
100
AcDbEntity
  8
DEFPOINTS
 62
     0
100
AcDbPoint
 10
939.0901799394256
 20
308.2788492320227
 30
0.0
  0
POINT
  5
56C
330
461
100
AcDbEntity
  8
DEFPOINTS
 62
     0
100
AcDbPoint
 10
1275.954438897469
 20
308.2788492320227
 30
0.0
  0
ENDBLK
  5
463
330
461
100
AcDbEntity
  8
0
100
AcDbBlockEnd
  0
BLOCK
  5
46F
330
46E
100
AcDbEntity
  8
0
100
AcDbBlockBegin
  2
*D6
 70
     1
 10
0.0
 20
0.0
 30
0.0
  3
*D6
  1

  0
LINE
  5
56D
330
46E
100
AcDbEntity
  8
0
 62
     0
370
    -2
100
AcDbLine
 10
1217.940179939428
 20
491.503849232022
 30
0.0
 11
1217.940179939428
 21
243.8267389787311
 31
0.0
  0
LINE
  5
56E
330
46E
100
AcDbEntity
  8
0
 62
     0
370
    -2
100
AcDbLine
 10
660.2401799394249
 20
491.503849232022
 30
0.0
 11
660.2401799394249
 21
243.8267389787311
 31
0.0
  0
LINE
  5
56F
330
46E
100
AcDbEntity
  8
0
 62
     0
370
    -2
100
AcDbLine
 10
1207.940179939428
 20
253.8267389787311
 30
0.0
 11
670.2401799394249
 21
253.8267389787311
 31
0.0
  0
SOLID
  5
570
330
46E
100
AcDbEntity
  8
0
 62
     0
100
AcDbTrace
 10
1207.940179939428
 20
255.4934056453977
 30
0.0
 11
1207.940179939428
 21
252.1600723120644
 31
0.0
 12
1217.940179939428
 22
253.8267389787311
 32
0.0
 13
1217.940179939428
 23
253.8267389787311
 33
0.0
  0
SOLID
  5
571
330
46E
100
AcDbEntity
  8
0
 62
     0
100
AcDbTrace
 10
670.2401799394249
 20
255.4934056453977
 30
0.0
 11
670.2401799394249
 21
252.1600723120644
 31
0.0
 12
660.2401799394249
 22
253.8267389787311
 32
0.0
 13
660.2401799394249
 23
253.8267389787311
 33
0.0
  0
MTEXT
  5
572
330
46E
100
AcDbEntity
  8
0
 62
     0
100
AcDbMText
 10
939.0901799394264
 20
271.8267389787311
 30
0.0
 40
20.0
 41
0.0
 71
     5
 72
     1
  1
\A1;22"
 73
     1
 44
1.0
1001
ACAD
1000
MTEXTBEGIN
1070
    73
1070
     1
1070
    44
1040
1.0
1070
    74
1070
     0
1000
MTEXTEND
  0
POINT
  5
573
330
46E
100
AcDbEntity
  8
DEFPOINTS
 62
     0
100
AcDbPoint
 10
1217.940179939428
 20
494.628849232022
 30
0.0
  0
POINT
  5
574
330
46E
100
AcDbEntity
  8
DEFPOINTS
 62
     0
100
AcDbPoint
 10
660.2401799394249
 20
494.628849232022
 30
0.0
  0
POINT
  5
575
330
46E
100
AcDbEntity
  8
DEFPOINTS
 62
     0
100
AcDbPoint
 10
660.2401799394249
 20
253.8267389787311
 30
0.0
  0
ENDBLK
  5
470
330
46E
100
AcDbEntity
  8
0
100
AcDbBlockEnd
  0
BLOCK
  5
47B
330
47A
100
AcDbEntity
  8
0
100
AcDbBlockBegin
  2
*D7
 70
     1
 10
0.0
 20
0.0
 30
0.0
  3
*D7
  1

  0
LINE
  5
576
330
47A
100
AcDbEntity
  8
0
 62
     0
370
    -2
100
AcDbLine
 10
678.2958173007811
 20
636.289482835432
 30
0.0
 11
683.4603987112338
 21
661.1009210212868
 31
0.0
  0
LINE
  5
577
330
47A
100
AcDbEntity
  8
0
 62
     0
370
    -2
100
AcDbLine
 10
672.0790681897648
 20
637.5835193460002
 30
0.0
 11
677.2436496002174
 21
662.3949575318548
 31
0.0
  0
LINE
  5
578
330
47A
100
AcDbEntity
  8
0
 62
     0
370
    -2
100
AcDbLine
 10
691.2127020190252
 20
649.2729121683987
 30
0.0
 11
701.0028580993652
 21
647.2350593958505
 31
0.0
  0
LINE
  5
579
330
47A
100
AcDbEntity
  8
0
 62
     0
370
    -2
100
AcDbLine
 10
665.4156407473292
 20
654.6426542240632
 30
0.0
 11
655.6254846669892
 21
656.6805069966115
 31
0.0
  0
SOLID
  5
57A
330
47A
100
AcDbEntity
  8
0
 62
     0
100
AcDbTrace
 10
691.5523441477831
 20
650.9046048484552
 30
0.0
 11
690.8730598902671
 21
647.6412194883421
 31
0.0
 12
681.4225459386854
 22
651.3107649409469
 32
0.0
 13
681.4225459386854
 23
651.3107649409469
 33
0.0
  0
SOLID
  5
57B
330
47A
100
AcDbEntity
  8
0
 62
     0
100
AcDbTrace
 10
665.7552828760872
 20
656.2743469041198
 30
0.0
 11
665.0759986185712
 21
653.0109615440067
 31
0.0
 12
675.2057968276691
 22
652.6048014515151
 32
0.0
 13
675.2057968276691
 23
652.6048014515151
 33
0.0
  0
MTEXT
  5
57C
330
47A
100
AcDbEntity
  8
0
 62
     0
100
AcDbMText
 10
636.2921513336559
 20
683.3471736632779
 30
0.0
 40
20.0
 41
0.0
 71
     5
 72
     1
  1
\A1;{\H0.800000x;\S1/4;}"
 73
     1
 44
1.0
1001
ACAD
1000
MTEXTBEGIN
1070
    73
1070
     1
1070
    44
1040
1.0
1070
    74
1070
     0
1000
MTEXTEND
  0
POINT
  5
57D
330
47A
100
AcDbEntity
  8
DEFPOINTS
 62
     0
100
AcDbPoint
 10
677.6589883093597
 20
633.2300590603257
 30
0.0
  0
POINT
  5
57E
330
47A
100
AcDbEntity
  8
DEFPOINTS
 62
     0
100
AcDbPoint
 10
671.4422391983434
 20
634.5240955708939
 30
0.0
  0
POINT
  5
57F
330
47A
100
AcDbEntity
  8
DEFPOINTS
 62
     0
100
AcDbPoint
 10
675.2057968276691
 20
652.6048014515151
 30
0.0
  0
ENDBLK
  5
47C
330
47A
100
AcDbEntity
  8
0
100
AcDbBlockEnd
  0
ENDSEC
  0
SECTION
  2
ENTITIES
  0
ARC
  5
428
330
6C
100
AcDbEntity
  8
0
  6
CENTER2
 62
     7
 48
20.0
100
AcDbCircle
 10
939.0901799394251
 20
-405.3711507679771
 30
0.0
 40
1200.0
100
AcDbArc
 50
86.23708409259441
 51
93.76291590740557
  0
ARC
  5
429
330
6C
100
AcDbEntity
  8
0
 62
     7
100
AcDbCircle
 10
939.0901799394251
 20
-405.3711507679771
 30
0.0
 40
1206.35
100
AcDbArc
 50
86.23708409259441
 51
93.76291590740557
  0
ARC
  5
42A
330
6C
100
AcDbEntity
  8
0
  6
CENTER2
 62
     7
 48
20.0
100
AcDbCircle
 10
1566.590179939425
 20
494.6288492320236
 30
0.0
 40
900.0
100
AcDbArc
 50
171.9650365641158
 51
185.1959697867387
  0
ARC
  5
42B
330
6C
100
AcDbEntity
  8
0
 62
     7
100
AcDbCircle
 10
1566.590179939425
 20
494.6288492320236
 30
0.0
 40
906.3500000000001
100
AcDbArc
 50
171.9650365641158
 51
185.1959697867387
  0
ARC
  5
42C
330
6C
100
AcDbEntity
  8
0
  6
CENTER2
 62
     7
 48
20.0
100
AcDbCircle
 10
873.4621099161586
 20
592.4730036093585
 30
0.0
 40
200.0
100
AcDbArc
 50
93.76291590740557
 51
171.9650365641158
  0
ARC
  5
42D
330
6C
100
AcDbEntity
  8
0
 62
     7
100
AcDbCircle
 10
873.4621099161586
 20
592.4730036093585
 30
0.0
 40
206.35
100
AcDbArc
 50
93.76291590740557
 51
171.9650365641158
  0
ARC
  5
42E
330
6C
100
AcDbEntity
  8
0
  6
CENTER2
 62
     7
 48
20.0
100
AcDbCircle
 10
769.8775629054562
 20
422.1788260513545
 30
0.0
 40
100.0
100
AcDbArc
 50
185.1959697867387
 51
264.8905099738009
  0
ARC
  5
42F
330
6C
100
AcDbEntity
  8
0
 62
     7
100
AcDbCircle
 10
769.8775629054562
 20
422.1788260513545
 30
0.0
 40
106.35
100
AcDbArc
 50
185.1959697867387
 51
264.8905099738009
  0
ARC
  5
430
330
6C
100
AcDbEntity
  8
0
  6
CENTER2
 62
     7
 48
20.0
100
AcDbCircle
 10
939.0901799394251
 20
2314.628849232023
 30
0.0
 40
2000.0
100
AcDbArc
 50
264.8905099738009
 51
275.1094900261991
  0
ARC
  5
431
330
6C
100
AcDbEntity
  8
0
 62
     7
100
AcDbCircle
 10
939.0901799394251
 20
2314.628849232023
 30
0.0
 40
2006.35
100
AcDbArc
 50
264.8905099738009
 51
275.1094900261991
  0
ARC
  5
432
330
6C
100
AcDbEntity
  8
0
  6
CENTER2
 62
     7
 48
20.0
100
AcDbCircle
 10
311.5901799394283
 20
494.6288492320236
 30
0.0
 40
899.9999999999996
100
AcDbArc
 50
354.8040302132613
 51
8.034963435884131
  0
ARC
  5
433
330
6C
100
AcDbEntity
  8
0
 62
     7
100
AcDbCircle
 10
311.5901799394283
 20
494.6288492320236
 30
0.0
 40
906.3499999999997
100
AcDbArc
 50
354.8040302132613
 51
8.034963435884131
  0
ARC
  5
434
330
6C
100
AcDbEntity
  8
0
  6
CENTER2
 62
     7
 48
20.0
100
AcDbCircle
 10
1004.7182499627
 20
592.4730036093585
 30
0.0
 40
199.9999999999999
100
AcDbArc
 50
8.034963435884131
 51
86.23708409259441
  0
ARC
  5
435
330
6C
100
AcDbEntity
  8
0
 62
     7
100
AcDbCircle
 10
1004.7182499627
 20
592.4730036093585
 30
0.0
 40
206.3499999999999
100
AcDbArc
 50
8.034963435884131
 51
86.23708409259441
  0
ARC
  5
436
330
6C
100
AcDbEntity
  8
0
  6
CENTER2
 62
     7
 48
20.0
100
AcDbCircle
 10
1108.3027969734
 20
422.1788260513545
 30
0.0
 40
100.0
100
AcDbArc
 50
275.1094900261991
 51
354.8040302132613
  0
ARC
  5
437
330
6C
100
AcDbEntity
  8
0
 62
     7
100
AcDbCircle
 10
1108.3027969734
 20
422.1788260513545
 30
0.0
 40
106.3499999999999
100
AcDbArc
 50
275.1094900261991
 51
354.8040302132613
  0
ARC
  5
438
330
6C
100
AcDbEntity
  8
0
 62
     7
 48
20.0
100
AcDbCircle
 10
789.6512589682661
 20
504.1781890511606
 30
0.0
 40
191.9999999998253
100
AcDbArc
 50
86.23708409259441
 51
93.76291590740557
1001
AcDbBlockRepETag
1070
     1
1071
        0
1005
0
  0
ARC
  5
439
330
6C
100
AcDbEntity
  8
0
 62
     7
 48
20.0
100
AcDbCircle
 10
890.0512589681722
 20
648.1781890510298
 30
0.0
 40
143.999999999869
100
AcDbArc
 50
171.9650365644302
 51
185.1959697867387
1001
AcDbBlockRepETag
1070
     1
1071
        2
1005
0
  0
ARC
  5
43A
330
6C
100
AcDbEntity
  8
0
 62
     7
 48
20.0
100
AcDbCircle
 10
779.1507677645522
 20
663.8332537513885
 30
0.0
 40
31.9999999999709
100
AcDbArc
 50
93.76291590740557
 51
171.9650365644302
1001
AcDbBlockRepETag
1070
     1
1071
        4
1005
0
  0
ARC
  5
43B
330
6C
100
AcDbEntity
  8
0
 62
     7
 48
20.0
100
AcDbCircle
 10
762.5772402428537
 20
636.5861853421336
 30
0.0
 40
15.99999999998544
100
AcDbArc
 50
185.1959697867387
 51
264.8905099744287
1001
AcDbBlockRepETag
1070
     1
1071
        6
1005
0
  0
ARC
  5
43C
330
6C
100
AcDbEntity
  8
0
 62
     7
 48
20.0
100
AcDbCircle
 10
789.6512589682661
 20
939.3781890507646
 30
0.0
 40
319.999999999709
100
AcDbArc
 50
264.8905099744287
 51
275.1094900255714
1001
AcDbBlockRepETag
1070
     1
1071
        8
1005
0
  0
ARC
  5
43D
330
6C
100
AcDbEntity
  8
0
 62
     7
 48
20.0
100
AcDbCircle
 10
689.2512589683549
 20
648.1781890510298
 30
0.0
 40
143.999999999869
100
AcDbArc
 50
354.8040302132613
 51
8.034963435569776
1001
AcDbBlockRepETag
1070
     1
1071
       10
1005
0
  0
ARC
  5
43E
330
6C
100
AcDbEntity
  8
0
 62
     7
 48
20.0
100
AcDbCircle
 10
800.1517501719812
 20
663.8332537513885
 30
0.0
 40
31.99999999997089
100
AcDbArc
 50
8.034963435569776
 51
86.23708409259441
1001
AcDbBlockRepETag
1070
     1
1071
       12
1005
0
  0
ARC
  5
43F
330
6C
100
AcDbEntity
  8
0
 62
     7
 48
20.0
100
AcDbCircle
 10
816.7252776936784
 20
636.5861853421336
 30
0.0
 40
15.99999999998544
100
AcDbArc
 50
275.1094900255714
 51
354.8040302132613
1001
AcDbBlockRepETag
1070
     1
1071
       14
1005
0
  0
LINE
  5
440
330
6C
100
AcDbEntity
  8
0
 62
     7
100
AcDbLine
 10
801.9712589682551
 20
673.7781890510066
 30
0.0
 11
777.3312589682773
 21
673.7781890510066
 31
0.0
1001
AcDbBlockRepETag
1070
     1
1071
       16
1005
0
  0
LINE
  5
441
330
6C
100
AcDbEntity
  8
0
 62
     7
100
AcDbLine
 10
789.6512589682661
 20
661.4581890510176
 30
0.0
 11
789.6512589682661
 21
686.0981890509956
 31
0.0
1001
AcDbBlockRepETag
1070
     1
1071
       17
1005
0
  0
CIRCLE
  5
442
330
6C
100
AcDbEntity
  8
0
 62
     7
100
AcDbCircle
 10
789.6512589682661
 20
673.7781890510066
 30
0.0
 40
9.119999999991703
1001
AcDbBlockRepETag
1070
     1
1071
       18
1005
0
  0
CIRCLE
  5
443
330
6C
100
AcDbEntity
  8
0
 62
     7
100
AcDbCircle
 10
789.6512589682661
 20
673.7781890510066
 30
0.0
 40
7.359999999993306
1001
AcDbBlockRepETag
1070
     1
1071
       19
1005
0
  0
ARC
  5
444
330
6C
100
AcDbEntity
  8
0
 62
     7
 48
20.0
100
AcDbCircle
 10
779.1507677645522
 20
663.8332537513885
 30
0.0
 40
35.99999999996726
100
AcDbArc
 50
93.76291590740557
 51
171.9650365644302
1001
AcDbBlockRepETag
1070
     1
1071
       20
1005
0
  0
ARC
  5
445
330
6C
100
AcDbEntity
  8
0
 62
     7
 48
20.0
100
AcDbCircle
 10
789.6512589682661
 20
504.1781890511606
 30
0.0
 40
195.9999999998217
100
AcDbArc
 50
86.23708409259441
 51
93.76291590740557
1001
AcDbBlockRepETag
1070
     1
1071
       21
1005
0
  0
ARC
  5
446
330
6C
100
AcDbEntity
  8
0
 62
     7
 48
20.0
100
AcDbCircle
 10
800.1517501719812
 20
663.8332537513885
 30
0.0
 40
35.99999999996725
100
AcDbArc
 50
8.034963435569776
 51
86.23708409259441
1001
AcDbBlockRepETag
1070
     1
1071
       22
1005
0
  0
ARC
  5
447
330
6C
100
AcDbEntity
  8
0
 62
     7
 48
20.0
100
AcDbCircle
 10
689.2512589683549
 20
648.1781890510298
 30
0.0
 40
147.9999999998653
100
AcDbArc
 50
354.8040302132613
 51
8.034963435569776
1001
AcDbBlockRepETag
1070
     1
1071
       23
1005
0
  0
ARC
  5
448
330
6C
100
AcDbEntity
  8
0
 62
     7
 48
20.0
100
AcDbCircle
 10
816.7252776936784
 20
636.5861853421336
 30
0.0
 40
19.99999999998181
100
AcDbArc
 50
275.1094900255714
 51
354.8040302132613
1001
AcDbBlockRepETag
1070
     1
1071
       24
1005
0
  0
ARC
  5
449
330
6C
100
AcDbEntity
  8
0
 62
     7
 48
20.0
100
AcDbCircle
 10
789.6512589682661
 20
939.3781890507646
 30
0.0
 40
323.9999999997053
100
AcDbArc
 50
264.8905099744287
 51
275.1094900255714
1001
AcDbBlockRepETag
1070
     1
1071
       25
1005
0
  0
ARC
  5
44A
330
6C
100
AcDbEntity
  8
0
 62
     7
 48
20.0
100
AcDbCircle
 10
762.5772402428537
 20
636.5861853421336
 30
0.0
 40
19.99999999998181
100
AcDbArc
 50
185.1959697867387
 51
264.8905099744287
1001
AcDbBlockRepETag
1070
     1
1071
       26
1005
0
  0
ARC
  5
44B
330
6C
100
AcDbEntity
  8
0
 62
     7
 48
20.0
100
AcDbCircle
 10
890.0512589681722
 20
648.1781890510298
 30
0.0
 40
147.9999999998654
100
AcDbArc
 50
171.9650365644302
 51
185.1959697867387
1001
AcDbBlockRepETag
1070
     1
1071
       27
1005
0
  0
INSERT
  5
44C
330
6C
100
AcDbEntity
  8
0
 62
     7
100
AcDbBlockReference
  2
A$C40C2364E
 10
983.1263961983225
 20
668.9375650495508
 30
0.0
 41
0.9421147827924867
 42
0.9421147827906679
 43
0.9421147827912411
  0
MTEXT
  5
44D
330
6C
100
AcDbEntity
  8
0
 62
     7
100
AcDbMText
 10
779.0413015204667
 20
496.4257259744076
 30
0.0
 40
7.0
 41
411.7917988754052
 71
     1
 72
     5
  1
{\fArial|b1|i0|c0|p34;Use outside line for reveal mount cut:\P\fArial|b0|i0|c0|p34;sink rim is 1/4" revealed from the countertop opening.}
 73
     1
 44
1.0
1001
ACAD
1000
MTEXTBEGIN
1070
    73
1070
     1
1070
    44
1040
1.0
1070
    74
1070
     0
1000
MTEXTEND
  0
MTEXT
  5
44E
330
6C
100
AcDbEntity
  8
0
 62
     7
100
AcDbMText
 10
779.0413015204667
 20
465.4675631731345
 30
0.0
 40
7.0
 41
411.7917988754052
 71
     1
 72
     5
  1
{\fArial|b1|i0|c0|p34;Use inside line for flush mount cut:\P\fArial|b0|i0|c0|p34;sink wall is flush to the edge of countertop opening.}
 73
     1
 44
1.0
1001
ACAD
1000
MTEXTBEGIN
1070
    73
1070
     1
1070
    44
1040
1.0
1070
    74
1070
     0
1000
MTEXTEND
  0
MTEXT
  5
44F
330
6C
100
AcDbEntity
  8
0
 62
     7
100
AcDbMText
 10
779.0413015204667
 20
434.5094003718616
 30
0.0
 40
7.0
 41
411.7917988754052
 71
     1
 72
     5
  1
{\fArial|b0|i0|c0|p34;Please check actual template against  physical sink unit for most accurate cut!}
 73
     1
 44
1.0
1001
ACAD
1000
MTEXTBEGIN
1070
    73
1070
     1
1070
    44
1040
1.0
1070
    74
1070
     0
1000
MTEXTEND
  0
MTEXT
  5
450
330
6C
100
AcDbEntity
  8
0
 62
     7
100
AcDbMText
 10
763.0962967003853
 20
341.554414282336
 30
0.0
 40
5.0
 41
411.7917988754052
 71
     1
 72
     5
  1
{\fArial|b0|i0|c0|p34;Use this line for FLUSH MOUNT CUT.}
 73
     1
 44
1.0
1001
ACAD
1000
MTEXTBEGIN
1070
    73
1070
     1
1070
    44
1040
1.0
1070
    74
1070
     0
1000
MTEXTEND
  0
LEADER
  5
451
330
6C
100
AcDbEntity
  8
0
 62
     7
100
AcDbLeader
  3
15
 76
     2
 10
902.6768864612222
 20
314.9603586921366
 30
0.0
 10
878.0224437475313
 20
333.6325003682536
 30
0.0
  0
CIRCLE
  5
452
330
6C
100
AcDbEntity
  8
0
 62
     7
100
AcDbCircle
 10
939.0901799394251
 20
554.6288492320236
 30
0.0
 40
2.5
  0
CIRCLE
  5
453
330
6C
100
AcDbEntity
  8
0
 62
     7
100
AcDbCircle
 10
688.5924071136811
 20
554.6288492320236
 30
0.0
 40
2.5
  0
CIRCLE
  5
454
330
6C
100
AcDbEntity
  8
0
 62
     7
100
AcDbCircle
 10
939.0901799394251
 20
334.6288492320236
 30
0.0
 40
2.5
  0
CIRCLE
  5
455
330
6C
100
AcDbEntity
  8
0
 62
     7
100
AcDbCircle
 10
1189.58795276517
 20
554.6288492320236
 30
0.0
 40
2.5
  0
CIRCLE
  5
456
330
6C
100
AcDbEntity
  8
0
 62
     7
100
AcDbCircle
 10
939.0901799394251
 20
774.6288492320236
 30
0.0
 40
2.5
  0
MTEXT
  5
58B
102
{ACAD_XDICTIONARY
360
613
102
}
330
6C
100
AcDbEntity
  8
0
100
AcDbMText
 10
754.391392292136
 20
604.2036522045569
 30
0.0
 40
8.0
 41
134.0584383407235
 71
     1
 72
     5
  1
\A1;{\fTimes New Roman|b0|i0|c0|p18;23 1/2"\U+00D721"\U+00D79"}
 73
     1
 44
1.0
1001
ACAD
1000
ACAD_MTEXT_COLUMN_INFO_BEGIN
1070
    75
1070
     2
1070
    79
1070
     0
1070
    76
1070
     1
1070
    78
1070
     0
1070
    48
1040
134.0584383407235
1070
    49
1040
1.0
1070
    50
1070
     1
1040
0.0
1000
ACAD_MTEXT_COLUMN_INFO_END
1000
MTEXTBEGIN
1070
    73
1070
     1
1070
    44
1040
1.0
1070
    74
1070
     0
1000
MTEXTEND
  0
MTEXT
  5
58C
330
6C
100
AcDbEntity
  8
0
100
AcDbMText
 10
774.9835994521472
 20
584.2369247121705
 30
0.0
 40
8.0
 41
112.6025479869927
 71
     1
 72
     5
  1
\A1;{\fTimes New Roman|b0|i0|c0|p18;M2405}
 73
     1
 44
1.0
1001
ACAD
1000
ACAD_MTEXT_COLUMN_INFO_BEGIN
1070
    75
1070
     2
1070
    79
1070
     0
1070
    76
1070
     1
1070
    78
1070
     0
1070
    48
1040
112.6025479869927
1070
    49
1040
1.0
1070
    50
1070
     1
1040
0.0
1000
ACAD_MTEXT_COLUMN_INFO_END
1000
MTEXTBEGIN
1070
    73
1070
     1
1070
    44
1040
1.0
1070
    74
1070
     0
1000
MTEXTEND
  0
ENDSEC
  0
SECTION
  2
OBJECTS
  0
DICTIONARY
  5
C
330
0
100
AcDbDictionary
281
     1
  3
ACAD_2007HEADERVARS_RT
350
5DA
  3
ACAD_COLOR
350
63
  3
ACAD_GROUP
350
D
  3
ACAD_LAYOUT
350
62
  3
ACAD_MATERIAL
350
10
  3
ACAD_MLEADERSTYLE
350
66
  3
ACAD_MLINESTYLE
350
5F
  3
ACAD_PLOTSETTINGS
350
61
  3
ACAD_PLOTSTYLENAME
350
E
  3
ACAD_SCALELIST
350
42
  3
ACAD_TABLESTYLE
350
64
  3
ACAD_VISUALSTYLE
350
29
  3
ACDB_RECOMPOSE_DATA
350
5D8
  3
AcDbVariableDictionary
350
4E6
  3
DWGPROPS
350
5D9
  0
DICTIONARY
  5
4A8
330
8
100
AcDbDictionary
280
     1
281
     1
  0
DICTIONARY
  5
158
330
2
100
AcDbDictionary
280
     1
281
     1
  3
ACAD_LAYERSTATES
360
159
  0
DICTIONARY
  5
14E
330
14D
100
AcDbDictionary
280
     1
281
     1
  0
DICTIONARY
  5
79
330
78
100
AcDbDictionary
280
     1
281
     1
  3
ACAD_SORTENTS
360
7A
  0
DICTIONARY
  5
DE
330
DD
100
AcDbDictionary
280
     1
281
     1
  3
ACAD_SORTENTS
360
DF
  0
DICTIONARY
  5
F0
330
EF
100
AcDbDictionary
280
     1
281
     1
  3
ACAD_SORTENTS
360
F1
  0
DICTIONARY
  5
2C3
330
2C2
100
AcDbDictionary
280
     1
281
     1
  3
ACAD_SORTENTS
360
2C4
  0
DICTIONARY
  5
613
330
58B
100
AcDbDictionary
280
     1
281
     1
  3
ACAD_MTEXT_RT
360
614
  0
DICTIONARY
  5
5DA
102
{ACAD_REACTORS
330
C
102
}
330
C
100
AcDbDictionary
281
     1
  3
DIMFXL
350
5DB
  0
DICTIONARY
  5
63
102
{ACAD_REACTORS
330
C
102
}
330
C
100
AcDbDictionary
281
     1
  0
DICTIONARY
  5
D
102
{ACAD_REACTORS
330
C
102
}
330
C
100
AcDbDictionary
281
     1
  0
DICTIONARY
  5
62
102
{ACAD_REACTORS
330
C
102
}
330
C
100
AcDbDictionary
281
     1
  3
Model
350
6F
  3
布局1
350
6B
  3
布局2
350
73
  0
DICTIONARY
  5
10
102
{ACAD_REACTORS
330
C
102
}
330
C
100
AcDbDictionary
281
     1
  3
ByBlock
350
19
  3
ByLayer
350
11
  3
Global
350
21
  0
DICTIONARY
  5
66
102
{ACAD_REACTORS
330
C
102
}
330
C
100
AcDbDictionary
281
     1
  3
Standard
350
67
  0
DICTIONARY
  5
5F
102
{ACAD_REACTORS
330
C
102
}
330
C
100
AcDbDictionary
281
     1
  3
Standard
350
60
  0
DICTIONARY
  5
61
102
{ACAD_REACTORS
330
C
102
}
330
C
100
AcDbDictionary
281
     1
  0
ACDBDICTIONARYWDFLT
  5
E
102
{ACAD_REACTORS
330
C
102
}
330
C
100
AcDbDictionary
281
     1
  3
Normal
350
F
100
AcDbDictionaryWithDefault
340
F
  0
DICTIONARY
  5
42
102
{ACAD_REACTORS
330
C
102
}
330
C
100
AcDbDictionary
281
     1
  3
A0
350
43
  3
A1
350
44
  3
A2
350
45
  3
A3
350
46
  3
A4
350
47
  3
A5
350
48
  3
A6
350
49
  3
A7
350
4A
  3
A8
350
4B
  3
A9
350
4C
  3
B0
350
4D
  3
B1
350
4E
  3
B2
350
4F
  3
B3
350
50
  3
B4
350
51
  3
B5
350
52
  3
B6
350
53
  0
DICTIONARY
  5
64
102
{ACAD_REACTORS
330
C
102
}
330
C
100
AcDbDictionary
281
     1
  3
Standard
350
65
  0
DICTIONARY
  5
29
102
{ACAD_REACTORS
330
C
102
}
330
C
100
AcDbDictionary
281
     1
  3
2dWireframe
350
2F
  3
Basic
350
2E
  3
Brighten
350
35
  3
ColorChange
350
39
  3
Conceptual
350
32
  3
Dim
350
34
  3
EdgeColorOff
350
41
  3
Facepattern
350
38
  3
Flat
350
2A
  3
FlatWithEdges
350
2B
  3
Gouraud
350
2C
  3
GouraudWithEdges
350
2D
  3
Hidden
350
31
  3
JitterOff
350
3F
  3
Linepattern
350
37
  3
OverhangOff
350
40
  3
Realistic
350
33
  3
Shaded
350
3E
  3
Shaded with edges
350
3D
  3
Shades of Gray
350
3A
  3
Sketchy
350
3B
  3
Thicken
350
36
  3
Wireframe
350
30
  3
X-Ray
350
3C
  0
XRECORD
  5
5D8
102
{ACAD_REACTORS
330
C
102
}
330
C
100
AcDbXrecord
280
     1
 90
        1
330
65
330
58B
330
58C
  0
DICTIONARY
  5
4E6
102
{ACAD_REACTORS
330
C
102
}
330
C
100
AcDbDictionary
281
     1
  3
CANNOSCALE
350
4EA
  3
CMLEADERSTYLE
350
4E8
  3
CTABLESTYLE
350
4E7
  3
DIMASSOC
350
4F1
  3
HIDETEXT
350
4F0
  3
INDEXCTL
350
4EF
  3
LAYEREVAL
350
4EC
  3
LAYERNOTIFY
350
4ED
  3
LIGHTINGUNITS
350
4EB
  3
MSLTSCALE
350
4E9
  3
SORTENTS
350
4EE
  3
XCLIPFRAME
350
5D6
  0
XRECORD
  5
5D9
102
{ACAD_REACTORS
330
C
102
}
330
C
100
AcDbXrecord
280
     1
  1
DWGPROPS COOKIE
  2

  3

  4

  6

  7

  8
sales9
  9

300
=
301
=
302
=
303
=
304
=
305
=
306
=
307
=
308
=
309
=
 40
0.0039376851851852
 41
2456023.593803449
 42
2457169.708869584
  1

 90
        0
  0
DICTIONARY
  5
159
102
{ACAD_REACTORS
330
158
102
}
330
158
100
AcDbDictionary
281
     1
  0
SORTENTSTABLE
  5
7A
102
{ACAD_REACTORS
330
79
102
}
330
79
100
AcDbSortentsTable
330
78
  0
SORTENTSTABLE
  5
DF
102
{ACAD_REACTORS
330
DE
102
}
330
DE
100
AcDbSortentsTable
330
DD
  0
SORTENTSTABLE
  5
F1
102
{ACAD_REACTORS
330
F0
102
}
330
F0
100
AcDbSortentsTable
330
EF
  0
SORTENTSTABLE
  5
2C4
102
{ACAD_REACTORS
330
2C3
102
}
330
2C3
100
AcDbSortentsTable
330
2C2
  0
XRECORD
  5
614
102
{ACAD_REACTORS
330
613
102
}
330
613
100
AcDbXrecord
280
     1
 40
136873.0
  1
\A1;{\fTimes New Roman|b0|i0|c0|p18;23 1/2"\U+00D721"\U+00D79"}
  0
XRECORD
  5
5DB
102
{ACAD_REACTORS
330
5DA
102
}
330
5DA
100
AcDbXrecord
280
     1
 40
1.25
  0
LAYOUT
  5
6F
102
{ACAD_XDICTIONARY
360
60F
102
}
102
{ACAD_REACTORS
330
62
102
}
330
62
100
AcDbPlotSettings
  1

  2
none_device
  4
Letter_(8.50_x_11.00_Inches)
  6

 40
6.349999904632567
 41
6.349999904632567
 42
6.350006103515625
 43
6.350006103515625
 44
215.8999938964844
 45
279.3999938964844
 46
0.0
 47
0.0
 48
0.0
 49
0.0
140
0.0
141
0.0
142
1.0
143
211.1604123849084
 70
 11952
 72
     0
 73
     1
 74
     0
  7

 75
     0
147
0.0047357361576713
148
1126.316981194863
149
646.3192997852536
100
AcDbLayout
  1
Model
 70
     1
 71
     0
 10
0.0
 20
0.0
 11
12.0
 21
9.0
 12
0.0
 22
0.0
 32
0.0
 14
0.0
 24
0.0
 34
0.0
 15
0.0
 25
0.0
 35
0.0
146
0.0
 13
0.0
 23
0.0
 33
0.0
 16
1.0
 26
0.0
 36
0.0
 17
0.0
 27
1.0
 37
0.0
 76
     0
330
6C
331
57
1001
ACAD_PSEXT
1000
无
1000
无
1000
不可用
1000
在选择新的绘图仪配置名称之前，不能打印该布局。
1070
     0
  0
LAYOUT
  5
6B
102
{ACAD_XDICTIONARY
360
60D
102
}
102
{ACAD_REACTORS
330
62
102
}
330
62
100
AcDbPlotSettings
  1

  2
Canon MF4360-4390
  4

  6

 40
0.0
 41
0.0
 42
0.0
 43
0.0
 44
0.0
 45
0.0
 46
0.0
 47
0.0
 48
0.0
 49
0.0
140
0.0
141
0.0
142
1.0
143
1.0
 70
   688
 72
     0
 73
     0
 74
     5
  7

 75
    16
147
1.0
148
0.0
149
0.0
100
AcDbLayout
  1
布局1
 70
     1
 71
     1
 10
0.0
 20
0.0
 11
12.0
 21
9.0
 12
0.0
 22
0.0
 32
0.0
 14
1.000000000000000E+20
 24
1.000000000000000E+20
 34
1.000000000000000E+20
 15
-1.000000000000000E+20
 25
-1.000000000000000E+20
 35
-1.000000000000000E+20
146
0.0
 13
0.0
 23
0.0
 33
0.0
 16
1.0
 26
0.0
 36
0.0
 17
0.0
 27
1.0
 37
0.0
 76
     0
330
68
  0
LAYOUT
  5
73
102
{ACAD_XDICTIONARY
360
611
102
}
102
{ACAD_REACTORS
330
62
102
}
330
62
100
AcDbPlotSettings
  1

  2
Canon MF4360-4390
  4

  6

 40
0.0
 41
0.0
 42
0.0
 43
0.0
 44
0.0
 45
0.0
 46
0.0
 47
0.0
 48
0.0
 49
0.0
140
0.0
141
0.0
142
1.0
143
1.0
 70
   688
 72
     0
 73
     0
 74
     5
  7

 75
    16
147
1.0
148
0.0
149
0.0
100
AcDbLayout
  1
布局2
 70
     1
 71
     2
 10
0.0
 20
0.0
 11
12.0
 21
9.0
 12
0.0
 22
0.0
 32
0.0
 14
0.0
 24
0.0
 34
0.0
 15
0.0
 25
0.0
 35
0.0
146
0.0
 13
0.0
 23
0.0
 33
0.0
 16
1.0
 26
0.0
 36
0.0
 17
0.0
 27
1.0
 37
0.0
 76
     0
330
70
  0
MATERIAL
  5
19
102
{ACAD_XDICTIONARY
360
1A
102
}
102
{ACAD_REACTORS
330
10
102
}
330
10
100
AcDbMaterial
  1
ByBlock
 72
     0
 43
0.0208333333333333
 43
0.0
 43
0.0
 43
0.0
 43
0.0
 43
0.0208333333333333
 43
0.0
 43
0.0
 43
0.0
 43
0.0
 43
1.0
 43
0.0
 43
0.0
 43
0.0
 43
0.0
 43
1.0
 77
     0
 47
0.0208333333333333
 47
0.0
 47
0.0
 47
0.0
 47
0.0
 47
0.0208333333333333
 47
0.0
 47
0.0
 47
0.0
 47
0.0
 47
1.0
 47
0.0
 47
0.0
 47
0.0
 47
0.0
 47
1.0
171
     0
 49
0.0208333333333333
 49
0.0
 49
0.0
 49
0.0
 49
0.0
 49
0.0208333333333333
 49
0.0
 49
0.0
 49
0.0
 49
0.0
 49
1.0
 49
0.0
 49
0.0
 49
0.0
 49
0.0
 49
1.0
175
     0
142
0.0208333333333333
142
0.0
142
0.0
142
0.0
142
0.0
142
0.0208333333333333
142
0.0
142
0.0
142
0.0
142
0.0
142
1.0
142
0.0
142
0.0
142
0.0
142
0.0
142
1.0
179
     0
144
0.0208333333333333
144
0.0
144
0.0
144
0.0
144
0.0
144
0.0208333333333333
144
0.0
144
0.0
144
0.0
144
0.0
144
1.0
144
0.0
144
0.0
144
0.0
144
0.0
144
1.0
147
0.0208333333333333
147
0.0
147
0.0
147
0.0
147
0.0
147
0.0208333333333333
147
0.0
147
0.0
147
0.0
147
0.0
147
1.0
147
0.0
147
0.0
147
0.0
147
0.0
147
1.0
  0
MATERIAL
  5
11
102
{ACAD_XDICTIONARY
360
12
102
}
102
{ACAD_REACTORS
330
10
102
}
330
10
100
AcDbMaterial
  1
ByLayer
 72
     0
 43
0.0208333333333333
 43
0.0
 43
0.0
 43
0.0
 43
0.0
 43
0.0208333333333333
 43
0.0
 43
0.0
 43
0.0
 43
0.0
 43
1.0
 43
0.0
 43
0.0
 43
0.0
 43
0.0
 43
1.0
 77
     0
 47
0.0208333333333333
 47
0.0
 47
0.0
 47
0.0
 47
0.0
 47
0.0208333333333333
 47
0.0
 47
0.0
 47
0.0
 47
0.0
 47
1.0
 47
0.0
 47
0.0
 47
0.0
 47
0.0
 47
1.0
171
     0
 49
0.0208333333333333
 49
0.0
 49
0.0
 49
0.0
 49
0.0
 49
0.0208333333333333
 49
0.0
 49
0.0
 49
0.0
 49
0.0
 49
1.0
 49
0.0
 49
0.0
 49
0.0
 49
0.0
 49
1.0
175
     0
142
0.0208333333333333
142
0.0
142
0.0
142
0.0
142
0.0
142
0.0208333333333333
142
0.0
142
0.0
142
0.0
142
0.0
142
1.0
142
0.0
142
0.0
142
0.0
142
0.0
142
1.0
179
     0
144
0.0208333333333333
144
0.0
144
0.0
144
0.0
144
0.0
144
0.0208333333333333
144
0.0
144
0.0
144
0.0
144
0.0
144
1.0
144
0.0
144
0.0
144
0.0
144
0.0
144
1.0
147
0.0208333333333333
147
0.0
147
0.0
147
0.0
147
0.0
147
0.0208333333333333
147
0.0
147
0.0
147
0.0
147
0.0
147
1.0
147
0.0
147
0.0
147
0.0
147
0.0
147
1.0
  0
MATERIAL
  5
21
102
{ACAD_XDICTIONARY
360
22
102
}
102
{ACAD_REACTORS
330
10
102
}
330
10
100
AcDbMaterial
  1
Global
 72
     0
 43
0.0208333333333333
 43
0.0
 43
0.0
 43
0.0
 43
0.0
 43
0.0208333333333333
 43
0.0
 43
0.0
 43
0.0
 43
0.0
 43
1.0
 43
0.0
 43
0.0
 43
0.0
 43
0.0
 43
1.0
 77
     0
 47
0.0208333333333333
 47
0.0
 47
0.0
 47
0.0
 47
0.0
 47
0.0208333333333333
 47
0.0
 47
0.0
 47
0.0
 47
0.0
 47
1.0
 47
0.0
 47
0.0
 47
0.0
 47
0.0
 47
1.0
171
     0
 49
0.0208333333333333
 49
0.0
 49
0.0
 49
0.0
 49
0.0
 49
0.0208333333333333
 49
0.0
 49
0.0
 49
0.0
 49
0.0
 49
1.0
 49
0.0
 49
0.0
 49
0.0
 49
0.0
 49
1.0
175
     0
142
0.0208333333333333
142
0.0
142
0.0
142
0.0
142
0.0
142
0.0208333333333333
142
0.0
142
0.0
142
0.0
142
0.0
142
1.0
142
0.0
142
0.0
142
0.0
142
0.0
142
1.0
179
     0
144
0.0208333333333333
144
0.0
144
0.0
144
0.0
144
0.0
144
0.0208333333333333
144
0.0
144
0.0
144
0.0
144
0.0
144
1.0
144
0.0
144
0.0
144
0.0
144
0.0
144
1.0
147
0.0208333333333333
147
0.0
147
0.0
147
0.0
147
0.0
147
0.0208333333333333
147
0.0
147
0.0
147
0.0
147
0.0
147
1.0
147
0.0
147
0.0
147
0.0
147
0.0
147
1.0
  0
MLEADERSTYLE
  5
67
102
{ACAD_REACTORS
330
66
102
}
330
66
100
AcDbMLeaderStyle
170
     2
171
     1
172
     0
 90
        2
 40
0.0
 41
0.0
173
     1
 91
-1056964608
340
5B
 92
       -2
290
     1
 42
0.09
291
     1
 43
0.36
  3
Standard
 44
0.18
300

342
55
174
     1
178
     6
175
     1
176
     0
 93
-1056964608
 45
0.18
292
     0
297
     0
 46
0.18
 94
-1056964608
 47
1.0
 49
1.0
140
1.0
293
     1
141
0.0
294
     1
177
     0
142
1.0
295
     0
296
     0
143
0.125
1001
ACAD_MLEADERVER
1070
     2
  0
MLINESTYLE
  5
60
102
{ACAD_REACTORS
330
5F
102
}
330
5F
100
AcDbMlineStyle
  2
STANDARD
 70
     0
  3

 62
   256
 51
90.0
 52
90.0
 71
     2
 49
0.5
 62
   256
  6
BYLAYER
 49
-0.5
 62
   256
  6
BYLAYER
  0
ACDBPLACEHOLDER
  5
F
102
{ACAD_REACTORS
330
E
102
}
330
E
  0
SCALE
  5
43
102
{ACAD_REACTORS
330
42
102
}
330
42
100
AcDbScale
 70
     0
300
1:1
140
1.0
141
1.0
290
     1
  0
SCALE
  5
44
102
{ACAD_REACTORS
330
42
102
}
330
42
100
AcDbScale
 70
     0
300
1/128" = 1'-0"
140
0.0078125
141
12.0
290
     0
  0
SCALE
  5
45
102
{ACAD_REACTORS
330
42
102
}
330
42
100
AcDbScale
 70
     0
300
1/64" = 1'-0"
140
0.015625
141
12.0
290
     0
  0
SCALE
  5
46
102
{ACAD_REACTORS
330
42
102
}
330
42
100
AcDbScale
 70
     0
300
1/32" = 1'-0"
140
0.03125
141
12.0
290
     0
  0
SCALE
  5
47
102
{ACAD_REACTORS
330
42
102
}
330
42
100
AcDbScale
 70
     0
300
1/16" = 1'-0"
140
0.0625
141
12.0
290
     0
  0
SCALE
  5
48
102
{ACAD_REACTORS
330
42
102
}
330
42
100
AcDbScale
 70
     0
300
3/32" = 1'-0"
140
0.09375
141
12.0
290
     0
  0
SCALE
  5
49
102
{ACAD_REACTORS
330
42
102
}
330
42
100
AcDbScale
 70
     0
300
1/8" = 1'-0"
140
0.125
141
12.0
290
     0
  0
SCALE
  5
4A
102
{ACAD_REACTORS
330
42
102
}
330
42
100
AcDbScale
 70
     0
300
3/16" = 1'-0"
140
0.1875
141
12.0
290
     0
  0
SCALE
  5
4B
102
{ACAD_REACTORS
330
42
102
}
330
42
100
AcDbScale
 70
     0
300
1/4" = 1'-0"
140
0.25
141
12.0
290
     0
  0
SCALE
  5
4C
102
{ACAD_REACTORS
330
42
102
}
330
42
100
AcDbScale
 70
     0
300
3/8" = 1'-0"
140
0.375
141
12.0
290
     0
  0
SCALE
  5
4D
102
{ACAD_REACTORS
330
42
102
}
330
42
100
AcDbScale
 70
     0
300
1/2" = 1'-0"
140
0.5
141
12.0
290
     0
  0
SCALE
  5
4E
102
{ACAD_REACTORS
330
42
102
}
330
42
100
AcDbScale
 70
     0
300
3/4" = 1'-0"
140
0.75
141
12.0
290
     0
  0
SCALE
  5
4F
102
{ACAD_REACTORS
330
42
102
}
330
42
100
AcDbScale
 70
     0
300
1" = 1'-0"
140
1.0
141
12.0
290
     0
  0
SCALE
  5
50
102
{ACAD_REACTORS
330
42
102
}
330
42
100
AcDbScale
 70
     0
300
1-1/2" = 1'-0"
140
1.5
141
12.0
290
     0
  0
SCALE
  5
51
102
{ACAD_REACTORS
330
42
102
}
330
42
100
AcDbScale
 70
     0
300
3" = 1'-0"
140
3.0
141
12.0
290
     0
  0
SCALE
  5
52
102
{ACAD_REACTORS
330
42
102
}
330
42
100
AcDbScale
 70
     0
300
6" = 1'-0"
140
6.0
141
12.0
290
     0
  0
SCALE
  5
53
102
{ACAD_REACTORS
330
42
102
}
330
42
100
AcDbScale
 70
     0
300
1'-0" = 1'-0"
140
12.0
141
12.0
290
     0
  0
TABLESTYLE
  5
65
102
{ACAD_XDICTIONARY
360
4A4
102
}
102
{ACAD_REACTORS
330
64
102
}
330
64
100
AcDbTableStyle
  3
Standard
 70
     0
 71
     0
 40
0.06
 41
0.06
280
     0
281
     0
  7
Standard
140
0.18
170
     2
 62
     0
 63
     7
283
     0
274
    -2
284
     1
 64
     0
275
    -2
285
     1
 65
     0
276
    -2
286
     1
 66
     0
277
    -2
287
     1
 67
     0
278
    -2
288
     1
 68
     0
279
    -2
289
     1
 69
     0
  7
Standard
140
0.25
170
     5
 62
     0
 63
     7
283
     0
274
    -2
284
     1
 64
     0
275
    -2
285
     1
 65
     0
276
    -2
286
     1
 66
     0
277
    -2
287
     1
 67
     0
278
    -2
288
     1
 68
     0
279
    -2
289
     1
 69
     0
  7
Standard
140
0.18
170
     5
 62
     0
 63
     7
283
     0
274
    -2
284
     1
 64
     0
275
    -2
285
     1
 65
     0
276
    -2
286
     1
 66
     0
277
    -2
287
     1
 67
     0
278
    -2
288
     1
 68
     0
279
    -2
289
     1
 69
     0
  0
VISUALSTYLE
  5
2F
102
{ACAD_XDICTIONARY
360
5E6
102
}
102
{ACAD_REACTORS
330
29
102
}
330
29
100
AcDbVisualStyle
  2

 70
     4
 71
     0
 72
     2
 73
     0
 90
        0
 40
-0.6
 41
-30.0
 62
     5
 63
     7
 74
     1
 91
        4
 64
     7
 65
   257
 75
     1
175
     1
 42
1.0
 92
        0
 66
   257
 43
1.0
 76
     1
 77
     6
 78
     2
 67
     7
 79
     5
170
     0
171
     0
290
     0
174
     0
 93
        1
 44
0.0
173
     0
291
     0
 45
0.0
1001
ACAD
1000
AcDbSavedByObjectVersion
1070
     0
  0
VISUALSTYLE
  5
2E
102
{ACAD_XDICTIONARY
360
5E4
102
}
102
{ACAD_REACTORS
330
29
102
}
330
29
100
AcDbVisualStyle
  2

 70
     7
 71
     1
 72
     0
 73
     1
 90
        0
 40
-0.6
 41
-30.0
 62
     5
 63
     7
 74
     0
 91
        4
 64
     7
 65
   257
 75
     1
175
     1
 42
1.0
 92
        8
 66
     7
 43
1.0
 76
     1
 77
     6
 78
     2
 67
     7
 79
     5
170
     0
171
     0
290
     0
174
     0
 93
        1
 44
0.0
173
     0
291
     1
 45
0.0
1001
ACAD
1000
AcDbSavedByObjectVersion
1070
     0
  0
VISUALSTYLE
  5
35
102
{ACAD_XDICTIONARY
360
5F2
102
}
102
{ACAD_REACTORS
330
29
102
}
330
29
100
AcDbVisualStyle
  2

 70
    12
 71
     2
 72
     2
 73
     0
 90
        0
 40
-0.6
 41
-30.0
 62
     5
 63
     7
 74
     1
 91
        4
 64
     7
 65
   257
 75
     1
175
     1
 42
1.0
 92
        8
 66
     7
 43
1.0
 76
     1
 77
     6
 78
     2
 67
     7
 79
     5
170
     0
171
     0
290
     0
174
     0
 93
        1
 44
50.0
173
     0
291
     1
 45
0.0
1001
ACAD
1000
AcDbSavedByObjectVersion
1070
     0
  0
VISUALSTYLE
  5
39
102
{ACAD_XDICTIONARY
360
5FA
102
}
102
{ACAD_REACTORS
330
29
102
}
330
29
100
AcDbVisualStyle
  2

 70
    16
 71
     2
 72
     2
 73
     3
 90
        0
 40
-0.6
 41
-30.0
 62
     5
 63
     8
 74
     1
 91
        4
 64
     7
 65
   257
 75
     1
175
     1
 42
1.0
 92
        8
 66
     8
 43
1.0
 76
     1
 77
     6
 78
     2
 67
     7
 79
     5
170
     0
171
     0
290
     0
174
     0
 93
        1
 44
0.0
173
     0
291
     1
 45
0.0
1001
ACAD
1000
AcDbSavedByObjectVersion
1070
     0
  0
VISUALSTYLE
  5
32
102
{ACAD_XDICTIONARY
360
5EC
102
}
102
{ACAD_REACTORS
330
29
102
}
330
29
100
AcDbVisualStyle
  2

 70
     9
 71
     3
 72
     2
 73
     0
 90
        0
 40
-0.6
 41
-30.0
 62
     5
 63
     7
 74
     2
 91
        2
 64
     7
 65
   257
 75
     1
175
     1
 42
179.0
 92
        8
 66
     7
 43
1.0
 76
     1
 77
     6
 78
     2
 67
     7
 79
     3
170
     0
171
     0
290
     0
174
     0
 93
        1
 44
0.0
173
     0
291
     0
 45
0.0
1001
ACAD
1000
AcDbSavedByObjectVersion
1070
     0
  0
VISUALSTYLE
  5
34
102
{ACAD_XDICTIONARY
360
5F0
102
}
102
{ACAD_REACTORS
330
29
102
}
330
29
100
AcDbVisualStyle
  2

 70
    11
 71
     2
 72
     2
 73
     0
 90
        0
 40
-0.6
 41
-30.0
 62
     5
 63
     7
 74
     1
 91
        4
 64
     7
 65
   257
 75
     1
175
     1
 42
1.0
 92
        8
 66
     7
 43
1.0
 76
     1
 77
     6
 78
     2
 67
     7
 79
     5
170
     0
171
     0
290
     0
174
     0
 93
        1
 44
-50.0
173
     0
291
     1
 45
0.0
1001
ACAD
1000
AcDbSavedByObjectVersion
1070
     0
  0
VISUALSTYLE
  5
41
102
{ACAD_XDICTIONARY
360
60A
102
}
102
{ACAD_REACTORS
330
29
102
}
330
29
100
AcDbVisualStyle
  2

 70
    22
 71
     2
 72
     2
 73
     0
 90
        0
 40
-0.6
 41
-30.0
 62
     5
 63
     7
 74
     1
 91
        4
 64
     7
 65
   257
 75
     1
175
     1
 42
1.0
 92
        8
 66
     7
 43
1.0
 76
     1
 77
     6
 78
     2
 67
     7
 79
     5
170
     0
171
     0
290
     0
174
     0
 93
        1
 44
0.0
173
     0
291
     1
 45
0.0
1001
ACAD
1000
AcDbSavedByObjectVersion
1070
     0
  0
VISUALSTYLE
  5
38
102
{ACAD_XDICTIONARY
360
5F8
102
}
102
{ACAD_REACTORS
330
29
102
}
330
29
100
AcDbVisualStyle
  2

 70
    15
 71
     2
 72
     2
 73
     0
 90
        0
 40
-0.6
 41
-30.0
 62
     5
 63
     7
 74
     1
 91
        4
 64
     7
 65
   257
 75
     1
175
     1
 42
1.0
 92
        8
 66
     7
 43
1.0
 76
     1
 77
     6
 78
     2
 67
     7
 79
     5
170
     0
171
     0
290
     0
174
     0
 93
        1
 44
0.0
173
     0
291
     1
 45
0.0
1001
ACAD
1000
AcDbSavedByObjectVersion
1070
     0
  0
VISUALSTYLE
  5
2A
102
{ACAD_XDICTIONARY
360
5DC
102
}
102
{ACAD_REACTORS
330
29
102
}
330
29
100
AcDbVisualStyle
  2

 70
     0
 71
     2
 72
     1
 73
     1
 90
        2
 40
-0.6
 41
30.0
 62
     5
 63
     7
 74
     0
 91
        0
 64
     7
 65
   257
 75
     1
175
     1
 42
1.0
 92
        8
 66
     7
 43
1.0
 76
     1
 77
     6
 78
     2
 67
     7
 79
     5
170
     0
171
     0
290
     0
174
     0
 93
       13
 44
0.0
173
     0
291
     1
 45
0.0
1001
ACAD
1000
AcDbSavedByObjectVersion
1070
     0
  0
VISUALSTYLE
  5
2B
102
{ACAD_XDICTIONARY
360
5DE
102
}
102
{ACAD_REACTORS
330
29
102
}
330
29
100
AcDbVisualStyle
  2

 70
     1
 71
     2
 72
     1
 73
     1
 90
        2
 40
-0.6
 41
30.0
 62
     5
 63
     7
 74
     1
 91
        0
 64
     7
 65
   257
 75
     1
175
     1
 42
1.0
 92
        0
 66
   257
 43
1.0
 76
     1
 77
     6
 78
     2
 67
     7
 79
     5
170
     0
171
     0
290
     0
174
     0
 93
       13
 44
0.0
173
     0
291
     1
 45
0.0
1001
ACAD
1000
AcDbSavedByObjectVersion
1070
     0
  0
VISUALSTYLE
  5
2C
102
{ACAD_XDICTIONARY
360
5E0
102
}
102
{ACAD_REACTORS
330
29
102
}
330
29
100
AcDbVisualStyle
  2

 70
     2
 71
     2
 72
     2
 73
     1
 90
        2
 40
-0.6
 41
30.0
 62
     5
 63
     7
 74
     0
 91
        0
 64
     7
 65
   257
 75
     1
175
     1
 42
1.0
 92
        0
 66
     7
 43
1.0
 76
     1
 77
     6
 78
     2
 67
     7
 79
     5
170
     0
171
     0
290
     0
174
     0
 93
       13
 44
0.0
173
     0
291
     1
 45
0.0
1001
ACAD
1000
AcDbSavedByObjectVersion
1070
     0
  0
VISUALSTYLE
  5
2D
102
{ACAD_XDICTIONARY
360
5E2
102
}
102
{ACAD_REACTORS
330
29
102
}
330
29
100
AcDbVisualStyle
  2

 70
     3
 71
     2
 72
     2
 73
     1
 90
        2
 40
-0.6
 41
30.0
 62
     5
 63
     7
 74
     1
 91
        0
 64
     7
 65
   257
 75
     1
175
     1
 42
1.0
 92
        0
 66
   257
 43
1.0
 76
     1
 77
     6
 78
     2
 67
     7
 79
     5
170
     0
171
     0
290
     0
174
     0
 93
       13
 44
0.0
173
     0
291
     1
 45
0.0
1001
ACAD
1000
AcDbSavedByObjectVersion
1070
     0
  0
VISUALSTYLE
  5
31
102
{ACAD_XDICTIONARY
360
5EA
102
}
102
{ACAD_REACTORS
330
29
102
}
330
29
100
AcDbVisualStyle
  2

 70
     6
 71
     1
 72
     2
 73
     2
 90
        0
 40
-0.6
 41
-30.0
 62
     5
 63
     7
 74
     2
 91
        2
 64
     7
 65
   257
 75
     2
175
     1
 42
40.0
 92
        0
 66
   257
 43
1.0
 76
     1
 77
     6
 78
     2
 67
     7
 79
     3
170
     0
171
     0
290
     0
174
     0
 93
        1
 44
0.0
173
     0
291
     0
 45
0.0
1001
ACAD
1000
AcDbSavedByObjectVersion
1070
     0
  0
VISUALSTYLE
  5
3F
102
{ACAD_XDICTIONARY
360
606
102
}
102
{ACAD_REACTORS
330
29
102
}
330
29
100
AcDbVisualStyle
  2

 70
    20
 71
     2
 72
     2
 73
     0
 90
        0
 40
-0.6
 41
-30.0
 62
     5
 63
     7
 74
     1
 91
        4
 64
     7
 65
   257
 75
     1
175
     1
 42
1.0
 92
       10
 66
     7
 43
1.0
 76
     1
 77
     6
 78
     2
 67
     7
 79
     5
170
     0
171
     0
290
     0
174
     0
 93
        1
 44
0.0
173
     0
291
     1
 45
0.0
1001
ACAD
1000
AcDbSavedByObjectVersion
1070
     0
  0
VISUALSTYLE
  5
37
102
{ACAD_XDICTIONARY
360
5F6
102
}
102
{ACAD_REACTORS
330
29
102
}
330
29
100
AcDbVisualStyle
  2

 70
    14
 71
     2
 72
     2
 73
     0
 90
        0
 40
-0.6
 41
-30.0
 62
     5
 63
     7
 74
     1
 91
        4
 64
     7
 65
   257
 75
     7
175
     7
 42
1.0
 92
        8
 66
     7
 43
1.0
 76
     1
 77
     6
 78
     2
 67
     7
 79
     5
170
     0
171
     0
290
     0
174
     0
 93
        1
 44
0.0
173
     0
291
     1
 45
0.0
1001
ACAD
1000
AcDbSavedByObjectVersion
1070
     0
  0
VISUALSTYLE
  5
40
102
{ACAD_XDICTIONARY
360
608
102
}
102
{ACAD_REACTORS
330
29
102
}
330
29
100
AcDbVisualStyle
  2

 70
    21
 71
     2
 72
     2
 73
     0
 90
        0
 40
-0.6
 41
-30.0
 62
     5
 63
     7
 74
     1
 91
        4
 64
     7
 65
   257
 75
     1
175
     1
 42
1.0
 92
        9
 66
     7
 43
1.0
 76
     1
 77
     6
 78
     2
 67
     7
 79
     5
170
     0
171
     0
290
     0
174
     0
 93
        1
 44
0.0
173
     0
291
     1
 45
0.0
1001
ACAD
1000
AcDbSavedByObjectVersion
1070
     0
  0
VISUALSTYLE
  5
33
102
{ACAD_XDICTIONARY
360
5EE
102
}
102
{ACAD_REACTORS
330
29
102
}
330
29
100
AcDbVisualStyle
  2

 70
     8
 71
     2
 72
     2
 73
     0
 90
        2
 40
-0.6
 41
30.0
 62
     5
 63
     7
 74
     0
 91
        0
 64
     7
 65
   257
 75
     1
175
     1
 42
1.0
 92
        8
 66
   257
 43
1.0
 76
     1
 77
     6
 78
     2
 67
     7
 79
     3
170
     0
171
     0
290
     0
174
     0
 93
       13
 44
0.0
173
     0
291
     0
 45
0.0
1001
ACAD
1000
AcDbSavedByObjectVersion
1070
     0
  0
VISUALSTYLE
  5
3E
102
{ACAD_XDICTIONARY
360
604
102
}
102
{ACAD_REACTORS
330
29
102
}
330
29
100
AcDbVisualStyle
  2

 70
    27
 71
     2
 72
     2
 73
     1
 90
        2
 40
-0.6
 41
30.0
 62
     5
 63
     7
 74
     0
 91
        4
 64
     7
 65
   257
 75
     1
175
     1
 42
1.0
 92
        8
 66
   257
 43
1.0
 76
     1
 77
     6
 78
     2
 67
     8
 79
     3
170
     0
171
     0
290
     0
174
     0
 93
        5
 44
0.0
173
     0
291
     0
 45
0.0
1001
ACAD
1000
AcDbSavedByObjectVersion
1070
     0
  0
VISUALSTYLE
  5
3D
102
{ACAD_XDICTIONARY
360
602
102
}
102
{ACAD_REACTORS
330
29
102
}
330
29
100
AcDbVisualStyle
  2

 70
    26
 71
     2
 72
     2
 73
     1
 90
        2
 40
-0.6
 41
30.0
 62
     5
 63
     7
 74
     1
 91
       10
 64
     7
 65
   257
 75
     2
175
     1
 42
1.0
 92
        8
 66
   257
 43
1.0
 76
     1
 77
     6
 78
     2
 67
     7
 79
     3
170
     0
171
     0
290
     0
174
     0
 93
        5
 44
0.0
173
     0
291
     0
 45
0.0
1001
ACAD
1000
AcDbSavedByObjectVersion
1070
     0
  0
VISUALSTYLE
  5
3A
102
{ACAD_XDICTIONARY
360
5FC
102
}
102
{ACAD_REACTORS
330
29
102
}
330
29
100
AcDbVisualStyle
  2

 70
    23
 71
     2
 72
     2
 73
     3
 90
        0
 40
-0.6
 41
-30.0
 62
     5
 63
     7
 74
     2
 91
        2
 64
     7
 65
     7
 75
     1
175
     1
 42
40.0
 92
        8
 66
     7
 43
1.0
 76
     1
 77
     6
 78
     2
 67
     7
 79
     3
170
     0
171
     0
290
     0
174
     0
 93
        1
 44
0.0
173
     0
291
     0
 45
0.0
1001
ACAD
1000
AcDbSavedByObjectVersion
1070
     0
  0
VISUALSTYLE
  5
3B
102
{ACAD_XDICTIONARY
360
5FE
102
}
102
{ACAD_REACTORS
330
29
102
}
330
29
100
AcDbVisualStyle
  2

 70
    24
 71
     1
 72
     2
 73
     2
 90
        0
 40
-0.6
 41
-30.0
 62
     5
 63
     7
 74
     2
 91
        2
 64
     7
 65
     7
 75
     1
175
     1
 42
40.0
 92
       11
 66
     7
 43
1.0
 76
     1
 77
     6
 78
     2
 67
     7
 79
     6
170
     0
171
     0
290
     0
174
     0
 93
        1
 44
0.0
173
     0
291
     0
 45
0.0
1001
ACAD
1000
AcDbSavedByObjectVersion
1070
     0
  0
VISUALSTYLE
  5
36
102
{ACAD_XDICTIONARY
360
5F4
102
}
102
{ACAD_REACTORS
330
29
102
}
330
29
100
AcDbVisualStyle
  2

 70
    13
 71
     2
 72
     2
 73
     0
 90
        0
 40
-0.6
 41
-30.0
 62
     5
 63
     7
 74
     1
 91
        4
 64
     7
 65
   257
 75
     1
175
     1
 42
1.0
 92
       12
 66
     7
 43
1.0
 76
     1
 77
     6
 78
     2
 67
     7
 79
     5
170
     0
171
     0
290
     0
174
     0
 93
        1
 44
0.0
173
     0
291
     1
 45
0.0
1001
ACAD
1000
AcDbSavedByObjectVersion
1070
     0
  0
VISUALSTYLE
  5
30
102
{ACAD_XDICTIONARY
360
5E8
102
}
102
{ACAD_REACTORS
330
29
102
}
330
29
100
AcDbVisualStyle
  2

 70
     5
 71
     0
 72
     2
 73
     0
 90
        0
 40
-0.6
 41
-30.0
 62
     5
 63
     7
 74
     1
 91
        4
 64
     7
 65
   257
 75
     1
175
     1
 42
1.0
 92
        0
 66
   257
 43
1.0
 76
     1
 77
     6
 78
     2
 67
     7
 79
     3
170
     0
171
     0
290
     0
174
     0
 93
        1
 44
0.0
173
     0
291
     0
 45
0.0
1001
ACAD
1000
AcDbSavedByObjectVersion
1070
     0
  0
VISUALSTYLE
  5
3C
102
{ACAD_XDICTIONARY
360
600
102
}
102
{ACAD_REACTORS
330
29
102
}
330
29
100
AcDbVisualStyle
  2

 70
    25
 71
     2
 72
     2
 73
     1
 90
        1
 40
0.5
 41
-30.0
 62
     5
 63
     7
 74
     1
 91
        0
 64
     7
 65
   257
 75
     1
175
     1
 42
1.0
 92
        8
 66
     7
 43
1.0
 76
     1
 77
     6
 78
     2
 67
     7
 79
     3
170
     0
171
     0
290
     0
174
     0
 93
       13
 44
0.0
173
     0
291
     0
 45
0.0
1001
ACAD
1000
AcDbSavedByObjectVersion
1070
     0
  0
DICTIONARYVAR
  5
4EA
102
{ACAD_REACTORS
330
4E6
102
}
330
4E6
100
DictionaryVariables
280
     0
  1
1:1
  0
DICTIONARYVAR
  5
4E8
102
{ACAD_REACTORS
330
4E6
102
}
330
4E6
100
DictionaryVariables
280
     0
  1
STANDARD
  0
DICTIONARYVAR
  5
4E7
102
{ACAD_REACTORS
330
4E6
102
}
330
4E6
100
DictionaryVariables
280
     0
  1
STANDARD
  0
DICTIONARYVAR
  5
4F1
102
{ACAD_REACTORS
330
4E6
102
}
330
4E6
100
DictionaryVariables
280
     0
  1
2
  0
DICTIONARYVAR
  5
4F0
102
{ACAD_REACTORS
330
4E6
102
}
330
4E6
100
DictionaryVariables
280
     0
  1
1
  0
DICTIONARYVAR
  5
4EF
102
{ACAD_REACTORS
330
4E6
102
}
330
4E6
100
DictionaryVariables
280
     0
  1
0
  0
DICTIONARYVAR
  5
4EC
102
{ACAD_REACTORS
330
4E6
102
}
330
4E6
100
DictionaryVariables
280
     0
  1
0
  0
DICTIONARYVAR
  5
4ED
102
{ACAD_REACTORS
330
4E6
102
}
330
4E6
100
DictionaryVariables
280
     0
  1
0
  0
DICTIONARYVAR
  5
4EB
102
{ACAD_REACTORS
330
4E6
102
}
330
4E6
100
DictionaryVariables
280
     0
  1
2
  0
DICTIONARYVAR
  5
4E9
102
{ACAD_REACTORS
330
4E6
102
}
330
4E6
100
DictionaryVariables
280
     0
  1
1
  0
DICTIONARYVAR
  5
4EE
102
{ACAD_REACTORS
330
4E6
102
}
330
4E6
100
DictionaryVariables
280
     0
  1
127
  0
DICTIONARYVAR
  5
5D6
102
{ACAD_REACTORS
330
4E6
102
}
330
4E6
100
DictionaryVariables
280
     0
  1
2
  0
DICTIONARY
  5
60F
330
6F
100
AcDbDictionary
280
     1
281
     1
  3
ACAD_XREC_ROUNDTRIP
360
610
  0
DICTIONARY
  5
60D
330
6B
100
AcDbDictionary
280
     1
281
     1
  3
ACAD_XREC_ROUNDTRIP
360
60E
  0
DICTIONARY
  5
611
330
73
100
AcDbDictionary
280
     1
281
     1
  3
ACAD_XREC_ROUNDTRIP
360
612
  0
DICTIONARY
  5
1A
330
19
100
AcDbDictionary
280
     1
281
     1
  3
ACAD_XREC_ROUNDTRIP
360
50A
  3
BUMPTILE
360
1C
  3
DIFFUSETILE
360
1B
  3
OPACITYTILE
360
1F
  3
REFLECTIONTILE
360
1E
  3
REFRACTIONTILE
360
20
  3
SPECULARTILE
360
1D
  0
DICTIONARY
  5
12
330
11
100
AcDbDictionary
280
     1
281
     1
  3
ACAD_XREC_ROUNDTRIP
360
509
  3
BUMPTILE
360
14
  3
DIFFUSETILE
360
13
  3
OPACITYTILE
360
17
  3
REFLECTIONTILE
360
16
  3
REFRACTIONTILE
360
18
  3
SPECULARTILE
360
15
  0
DICTIONARY
  5
22
330
21
100
AcDbDictionary
280
     1
281
     1
  3
ACAD_XREC_ROUNDTRIP
360
50B
  3
BUMPTILE
360
24
  3
DIFFUSETILE
360
23
  3
OPACITYTILE
360
27
  3
REFLECTIONTILE
360
26
  3
REFRACTIONTILE
360
28
  3
SPECULARTILE
360
25
  0
DICTIONARY
  5
4A4
330
65
100
AcDbDictionary
280
     1
281
     1
  3
ACAD_ROUNDTRIP_2008_TABLESTYLE_CELLSTYLEMAP
360
5D7
  3
ACAD_XREC_ROUNDTRIP
360
60C
  0
DICTIONARY
  5
5E6
330
2F
100
AcDbDictionary
280
     1
281
     1
  3
ACAD_XREC_ROUNDTRIP
360
5E7
  0
DICTIONARY
  5
5E4
330
2E
100
AcDbDictionary
280
     1
281
     1
  3
ACAD_XREC_ROUNDTRIP
360
5E5
  0
DICTIONARY
  5
5F2
330
35
100
AcDbDictionary
280
     1
281
     1
  3
ACAD_XREC_ROUNDTRIP
360
5F3
  0
DICTIONARY
  5
5FA
330
39
100
AcDbDictionary
280
     1
281
     1
  3
ACAD_XREC_ROUNDTRIP
360
5FB
  0
DICTIONARY
  5
5EC
330
32
100
AcDbDictionary
280
     1
281
     1
  3
ACAD_XREC_ROUNDTRIP
360
5ED
  0
DICTIONARY
  5
5F0
330
34
100
AcDbDictionary
280
     1
281
     1
  3
ACAD_XREC_ROUNDTRIP
360
5F1
  0
DICTIONARY
  5
60A
330
41
100
AcDbDictionary
280
     1
281
     1
  3
ACAD_XREC_ROUNDTRIP
360
60B
  0
DICTIONARY
  5
5F8
330
38
100
AcDbDictionary
280
     1
281
     1
  3
ACAD_XREC_ROUNDTRIP
360
5F9
  0
DICTIONARY
  5
5DC
330
2A
100
AcDbDictionary
280
     1
281
     1
  3
ACAD_XREC_ROUNDTRIP
360
5DD
  0
DICTIONARY
  5
5DE
330
2B
100
AcDbDictionary
280
     1
281
     1
  3
ACAD_XREC_ROUNDTRIP
360
5DF
  0
DICTIONARY
  5
5E0
330
2C
100
AcDbDictionary
280
     1
281
     1
  3
ACAD_XREC_ROUNDTRIP
360
5E1
  0
DICTIONARY
  5
5E2
330
2D
100
AcDbDictionary
280
     1
281
     1
  3
ACAD_XREC_ROUNDTRIP
360
5E3
  0
DICTIONARY
  5
5EA
330
31
100
AcDbDictionary
280
     1
281
     1
  3
ACAD_XREC_ROUNDTRIP
360
5EB
  0
DICTIONARY
  5
606
330
3F
100
AcDbDictionary
280
     1
281
     1
  3
ACAD_XREC_ROUNDTRIP
360
607
  0
DICTIONARY
  5
5F6
330
37
100
AcDbDictionary
280
     1
281
     1
  3
ACAD_XREC_ROUNDTRIP
360
5F7
  0
DICTIONARY
  5
608
330
40
100
AcDbDictionary
280
     1
281
     1
  3
ACAD_XREC_ROUNDTRIP
360
609
  0
DICTIONARY
  5
5EE
330
33
100
AcDbDictionary
280
     1
281
     1
  3
ACAD_XREC_ROUNDTRIP
360
5EF
  0
DICTIONARY
  5
604
330
3E
100
AcDbDictionary
280
     1
281
     1
  3
ACAD_XREC_ROUNDTRIP
360
605
  0
DICTIONARY
  5
602
330
3D
100
AcDbDictionary
280
     1
281
     1
  3
ACAD_XREC_ROUNDTRIP
360
603
  0
DICTIONARY
  5
5FC
330
3A
100
AcDbDictionary
280
     1
281
     1
  3
ACAD_XREC_ROUNDTRIP
360
5FD
  0
DICTIONARY
  5
5FE
330
3B
100
AcDbDictionary
280
     1
281
     1
  3
ACAD_XREC_ROUNDTRIP
360
5FF
  0
DICTIONARY
  5
5F4
330
36
100
AcDbDictionary
280
     1
281
     1
  3
ACAD_XREC_ROUNDTRIP
360
5F5
  0
DICTIONARY
  5
5E8
330
30
100
AcDbDictionary
280
     1
281
     1
  3
ACAD_XREC_ROUNDTRIP
360
5E9
  0
DICTIONARY
  5
600
330
3C
100
AcDbDictionary
280
     1
281
     1
  3
ACAD_XREC_ROUNDTRIP
360
601
  0
XRECORD
  5
610
102
{ACAD_REACTORS
330
60F
102
}
330
60F
100
AcDbXrecord
280
     1
102
SHADEPLOT
 70
     0
102
SHADEPLOTRESLEVEL
 70
     2
102
SHADEPLOTCUSTOMDPI
 70
   300
  0
XRECORD
  5
60E
102
{ACAD_REACTORS
330
60D
102
}
330
60D
100
AcDbXrecord
280
     1
102
SHADEPLOT
 70
     0
102
SHADEPLOTRESLEVEL
 70
     2
102
SHADEPLOTCUSTOMDPI
 70
   300
  0
XRECORD
  5
612
102
{ACAD_REACTORS
330
611
102
}
330
611
100
AcDbXrecord
280
     1
102
SHADEPLOT
 70
     0
102
SHADEPLOTRESLEVEL
 70
     2
102
SHADEPLOTCUSTOMDPI
 70
   300
  0
XRECORD
  5
50A
102
{ACAD_REACTORS
330
1A
102
}
330
1A
100
AcDbXrecord
280
     1
102
MATERIAL
148
0.0
149
0.0
149
0.0
 93
        0
 94
      127
282
     0
 72
     0
 77
     0
171
     0
175
     0
179
     0
273
     0
  0
XRECORD
  5
1C
102
{ACAD_REACTORS
330
1A
102
}
330
1A
100
AcDbXrecord
280
     1
270
     1
271
     1
  0
XRECORD
  5
1B
102
{ACAD_REACTORS
330
1A
102
}
330
1A
100
AcDbXrecord
280
     1
270
     1
271
     1
  0
XRECORD
  5
1F
102
{ACAD_REACTORS
330
1A
102
}
330
1A
100
AcDbXrecord
280
     1
270
     1
271
     1
  0
XRECORD
  5
1E
102
{ACAD_REACTORS
330
1A
102
}
330
1A
100
AcDbXrecord
280
     1
270
     1
271
     1
  0
XRECORD
  5
20
102
{ACAD_REACTORS
330
1A
102
}
330
1A
100
AcDbXrecord
280
     1
270
     1
271
     1
  0
XRECORD
  5
1D
102
{ACAD_REACTORS
330
1A
102
}
330
1A
100
AcDbXrecord
280
     1
270
     1
271
     1
  0
XRECORD
  5
509
102
{ACAD_REACTORS
330
12
102
}
330
12
100
AcDbXrecord
280
     1
102
MATERIAL
148
0.0
149
0.0
149
0.0
 93
        0
 94
      127
282
     0
 72
     0
 77
     0
171
     0
175
     0
179
     0
273
     0
  0
XRECORD
  5
14
102
{ACAD_REACTORS
330
12
102
}
330
12
100
AcDbXrecord
280
     1
270
     1
271
     1
  0
XRECORD
  5
13
102
{ACAD_REACTORS
330
12
102
}
330
12
100
AcDbXrecord
280
     1
270
     1
271
     1
  0
XRECORD
  5
17
102
{ACAD_REACTORS
330
12
102
}
330
12
100
AcDbXrecord
280
     1
270
     1
271
     1
  0
XRECORD
  5
16
102
{ACAD_REACTORS
330
12
102
}
330
12
100
AcDbXrecord
280
     1
270
     1
271
     1
  0
XRECORD
  5
18
102
{ACAD_REACTORS
330
12
102
}
330
12
100
AcDbXrecord
280
     1
270
     1
271
     1
  0
XRECORD
  5
15
102
{ACAD_REACTORS
330
12
102
}
330
12
100
AcDbXrecord
280
     1
270
     1
271
     1
  0
XRECORD
  5
50B
102
{ACAD_REACTORS
330
22
102
}
330
22
100
AcDbXrecord
280
     1
102
MATERIAL
148
0.0
149
0.0
149
0.0
 93
        0
 94
      127
282
     0
 72
     0
 77
     0
171
     0
175
     0
179
     0
273
     0
  0
XRECORD
  5
24
102
{ACAD_REACTORS
330
22
102
}
330
22
100
AcDbXrecord
280
     1
270
     1
271
     1
  0
XRECORD
  5
23
102
{ACAD_REACTORS
330
22
102
}
330
22
100
AcDbXrecord
280
     1
270
     1
271
     1
  0
XRECORD
  5
27
102
{ACAD_REACTORS
330
22
102
}
330
22
100
AcDbXrecord
280
     1
270
     1
271
     1
  0
XRECORD
  5
26
102
{ACAD_REACTORS
330
22
102
}
330
22
100
AcDbXrecord
280
     1
270
     1
271
     1
  0
XRECORD
  5
28
102
{ACAD_REACTORS
330
22
102
}
330
22
100
AcDbXrecord
280
     1
270
     1
271
     1
  0
XRECORD
  5
25
102
{ACAD_REACTORS
330
22
102
}
330
22
100
AcDbXrecord
280
     1
270
     1
271
     1
  0
CELLSTYLEMAP
  5
5D7
102
{ACAD_REACTORS
330
4A4
102
}
330
4A4
100
AcDbCellStyleMap
 90
        3
300
CELLSTYLE
  1
TABLEFORMAT_BEGIN
 90
        5
170
     1
 91
        0
 92
    32768
 62
   257
 93
        1
300
CONTENTFORMAT
  1
CONTENTFORMAT_BEGIN
 90
        0
 91
        0
 92
      512
 93
        0
300

 40
0.0
140
1.0
 94
        5
 62
     0
340
55
144
0.25
309
CONTENTFORMAT_END
171
     1
301
MARGIN
  1
CELLMARGIN_BEGIN
 40
0.06
 40
0.06
 40
0.06
 40
0.06
 40
0.18
 40
0.18
309
CELLMARGIN_END
 94
        6
 95
        1
302
GRIDFORMAT
  1
GRIDFORMAT_BEGIN
 90
        0
 91
        1
 62
     0
 92
       -2
340
0
 93
        0
 40
0.045
309
GRIDFORMAT_END
 95
        2
302
GRIDFORMAT
  1
GRIDFORMAT_BEGIN
 90
        0
 91
        1
 62
     0
 92
       -2
340
0
 93
        0
 40
0.045
309
GRIDFORMAT_END
 95
        4
302
GRIDFORMAT
  1
GRIDFORMAT_BEGIN
 90
        0
 91
        1
 62
     0
 92
       -2
340
0
 93
        0
 40
0.045
309
GRIDFORMAT_END
 95
        8
302
GRIDFORMAT
  1
GRIDFORMAT_BEGIN
 90
        0
 91
        1
 62
     0
 92
       -2
340
0
 93
        0
 40
0.045
309
GRIDFORMAT_END
 95
       16
302
GRIDFORMAT
  1
GRIDFORMAT_BEGIN
 90
        0
 91
        1
 62
     0
 92
       -2
340
0
 93
        0
 40
0.045
309
GRIDFORMAT_END
 95
       32
302
GRIDFORMAT
  1
GRIDFORMAT_BEGIN
 90
        0
 91
        1
 62
     0
 92
       -2
340
0
 93
        0
 40
0.045
309
GRIDFORMAT_END
309
TABLEFORMAT_END
  1
CELLSTYLE_BEGIN
 90
        1
 91
        1
300
_TITLE
309
CELLSTYLE_END
300
CELLSTYLE
  1
TABLEFORMAT_BEGIN
 90
        5
170
     1
 91
        0
 92
        0
 62
   257
 93
        1
300
CONTENTFORMAT
  1
CONTENTFORMAT_BEGIN
 90
        0
 91
        0
 92
      512
 93
        0
300

 40
0.0
140
1.0
 94
        5
 62
     0
340
55
144
0.18
309
CONTENTFORMAT_END
171
     1
301
MARGIN
  1
CELLMARGIN_BEGIN
 40
0.06
 40
0.06
 40
0.06
 40
0.06
 40
0.18
 40
0.18
309
CELLMARGIN_END
 94
        6
 95
        1
302
GRIDFORMAT
  1
GRIDFORMAT_BEGIN
 90
        0
 91
        1
 62
     0
 92
       -2
340
0
 93
        0
 40
0.045
309
GRIDFORMAT_END
 95
        2
302
GRIDFORMAT
  1
GRIDFORMAT_BEGIN
 90
        0
 91
        1
 62
     0
 92
       -2
340
0
 93
        0
 40
0.045
309
GRIDFORMAT_END
 95
        4
302
GRIDFORMAT
  1
GRIDFORMAT_BEGIN
 90
        0
 91
        1
 62
     0
 92
       -2
340
0
 93
        0
 40
0.045
309
GRIDFORMAT_END
 95
        8
302
GRIDFORMAT
  1
GRIDFORMAT_BEGIN
 90
        0
 91
        1
 62
     0
 92
       -2
340
0
 93
        0
 40
0.045
309
GRIDFORMAT_END
 95
       16
302
GRIDFORMAT
  1
GRIDFORMAT_BEGIN
 90
        0
 91
        1
 62
     0
 92
       -2
340
0
 93
        0
 40
0.045
309
GRIDFORMAT_END
 95
       32
302
GRIDFORMAT
  1
GRIDFORMAT_BEGIN
 90
        0
 91
        1
 62
     0
 92
       -2
340
0
 93
        0
 40
0.045
309
GRIDFORMAT_END
309
TABLEFORMAT_END
  1
CELLSTYLE_BEGIN
 90
        2
 91
        1
300
_HEADER
309
CELLSTYLE_END
300
CELLSTYLE
  1
TABLEFORMAT_BEGIN
 90
        5
170
     1
 91
        0
 92
        0
 62
   257
 93
        1
300
CONTENTFORMAT
  1
CONTENTFORMAT_BEGIN
 90
        0
 91
        0
 92
      512
 93
        0
300

 40
0.0
140
1.0
 94
        2
 62
     0
340
55
144
0.18
309
CONTENTFORMAT_END
171
     1
301
MARGIN
  1
CELLMARGIN_BEGIN
 40
0.06
 40
0.06
 40
0.06
 40
0.06
 40
0.18
 40
0.18
309
CELLMARGIN_END
 94
        6
 95
        1
302
GRIDFORMAT
  1
GRIDFORMAT_BEGIN
 90
        0
 91
        1
 62
     0
 92
       -2
340
0
 93
        0
 40
0.045
309
GRIDFORMAT_END
 95
        2
302
GRIDFORMAT
  1
GRIDFORMAT_BEGIN
 90
        0
 91
        1
 62
     0
 92
       -2
340
0
 93
        0
 40
0.045
309
GRIDFORMAT_END
 95
        4
302
GRIDFORMAT
  1
GRIDFORMAT_BEGIN
 90
        0
 91
        1
 62
     0
 92
       -2
340
0
 93
        0
 40
0.045
309
GRIDFORMAT_END
 95
        8
302
GRIDFORMAT
  1
GRIDFORMAT_BEGIN
 90
        0
 91
        1
 62
     0
 92
       -2
340
0
 93
        0
 40
0.045
309
GRIDFORMAT_END
 95
       16
302
GRIDFORMAT
  1
GRIDFORMAT_BEGIN
 90
        0
 91
        1
 62
     0
 92
       -2
340
0
 93
        0
 40
0.045
309
GRIDFORMAT_END
 95
       32
302
GRIDFORMAT
  1
GRIDFORMAT_BEGIN
 90
        0
 91
        1
 62
     0
 92
       -2
340
0
 93
        0
 40
0.045
309
GRIDFORMAT_END
309
TABLEFORMAT_END
  1
CELLSTYLE_BEGIN
 90
        3
 91
        2
300
_DATA
309
CELLSTYLE_END
  0
XRECORD
  5
60C
102
{ACAD_REACTORS
330
4A4
102
}
330
4A4
100
AcDbXrecord
280
     1
102
ACAD_ROUNDTRIP_PRE2007_TABLESTYLE
 90
      512
 91
        0
  1

 92
      512
 93
        0
  2

 94
      512
 95
        0
  3

  0
XRECORD
  5
5E7
102
{ACAD_REACTORS
330
5E6
102
}
330
5E6
100
AcDbXrecord
280
     1
102
RTVSPropertyOp0
 70
     1
102
RTVSPropertyOp1
 70
     1
102
RTVSPropertyOp2
 70
     1
102
RTVSPropertyOp3
 70
     1
102
RTVSPropertyOp4
 70
     1
102
RTVSPropertyOp5
 70
     1
102
RTVSPropertyOp6
 70
     1
102
RTVSPropertyOp7
 70
     1
102
RTVSPropertyOp8
 70
     1
102
RTVSPropertyOp9
 70
     1
102
RTVSPropertyOp10
 70
     1
102
RTVSPropertyOp11
 70
     1
102
RTVSPropertyOp12
 70
     1
102
RTVSPropertyOp13
 70
     1
102
RTVSPropertyOp14
 70
     1
102
RTVSPropertyOp15
 70
     1
102
RTVSPropertyOp16
 70
     1
102
RTVSPropertyOp17
 70
     1
102
RTVSPropertyOp18
 70
     1
102
RTVSPropertyOp19
 70
     1
102
RTVSPropertyOp20
 70
     1
102
RTVSPropertyOp21
 70
     1
102
RTVSPropertyOp22
 70
     1
102
RTVSPropertyOp23
 70
     1
102
RTVSPropertyOp24
 70
     1
102
RTVSPropertyOp25
 70
     1
102
RTVSPropertyOp26
 70
     1
102
RTVSPropertyOp27
 70
     1
102
RTVSPropertyOp28
 70
     1
102
RTVSPropertyOp29
 70
     1
102
RTVSPropertyOp30
 70
     1
102
RTVSPropertyOp31
 70
     1
102
RTVSPropertyOp32
 70
     1
  0
XRECORD
  5
5E5
102
{ACAD_REACTORS
330
5E4
102
}
330
5E4
100
AcDbXrecord
280
     1
102
RTVSPropertyOp0
 70
     1
102
RTVSPropertyOp1
 70
     1
102
RTVSPropertyOp2
 70
     1
102
RTVSPropertyOp3
 70
     1
102
RTVSPropertyOp4
 70
     1
102
RTVSPropertyOp5
 70
     1
102
RTVSPropertyOp6
 70
     1
102
RTVSPropertyOp7
 70
     1
102
RTVSPropertyOp8
 70
     1
102
RTVSPropertyOp9
 70
     1
102
RTVSPropertyOp10
 70
     1
102
RTVSPropertyOp11
 70
     1
102
RTVSPropertyOp12
 70
     1
102
RTVSPropertyOp13
 70
     1
102
RTVSPropertyOp14
 70
     1
102
RTVSPropertyOp15
 70
     1
102
RTVSPropertyOp16
 70
     1
102
RTVSPropertyOp17
 70
     1
102
RTVSPropertyOp18
 70
     1
102
RTVSPropertyOp19
 70
     1
102
RTVSPropertyOp20
 70
     1
102
RTVSPropertyOp21
 70
     1
102
RTVSPropertyOp22
 70
     1
102
RTVSPropertyOp23
 70
     1
102
RTVSPropertyOp24
 70
     1
102
RTVSPropertyOp25
 70
     1
102
RTVSPropertyOp26
 70
     1
102
RTVSPropertyOp27
 70
     1
102
RTVSPropertyOp28
 70
     1
102
RTVSPropertyOp29
 70
     1
102
RTVSPropertyOp30
 70
     1
102
RTVSPropertyOp31
 70
     1
102
RTVSPropertyOp32
 70
     1
  0
XRECORD
  5
5F3
102
{ACAD_REACTORS
330
5F2
102
}
330
5F2
100
AcDbXrecord
280
     1
102
RTVSPropertyOp0
 70
     1
102
RTVSPropertyOp1
 70
     1
102
RTVSPropertyOp2
 70
     1
102
RTVSPropertyOp3
 70
     1
102
RTVSPropertyOp4
 70
     1
102
RTVSPropertyOp5
 70
     1
102
RTVSPropertyOp6
 70
     1
102
RTVSPropertyOp7
 70
     1
102
RTVSPropertyOp8
 70
     1
102
RTVSPropertyOp9
 70
     1
102
RTVSPropertyOp10
 70
     1
102
RTVSPropertyOp11
 70
     1
102
RTVSPropertyOp12
 70
     1
102
RTVSPropertyOp13
 70
     1
102
RTVSPropertyOp14
 70
     1
102
RTVSPropertyOp15
 70
     1
102
RTVSPropertyOp16
 70
     1
102
RTVSPropertyOp17
 70
     1
102
RTVSPropertyOp18
 70
     1
102
RTVSPropertyOp19
 70
     1
102
RTVSPropertyOp20
 70
     1
102
RTVSPropertyOp21
 70
     1
102
RTVSPropertyOp22
 70
     1
102
RTVSPropertyOp23
 70
     1
102
RTVSPropertyOp24
 70
     1
102
RTVSPropertyOp25
 70
     1
102
RTVSPropertyOp26
 70
     1
102
RTVSPropertyOp27
 70
     1
102
RTVSPropertyOp28
 70
     1
102
RTVSPropertyOp29
 70
     1
102
RTVSPropertyOp30
 70
     1
102
RTVSPropertyOp31
 70
     1
102
RTVSPropertyOp32
 70
     1
  0
XRECORD
  5
5FB
102
{ACAD_REACTORS
330
5FA
102
}
330
5FA
100
AcDbXrecord
280
     1
102
RTVSPropertyOp0
 70
     1
102
RTVSPropertyOp1
 70
     1
102
RTVSPropertyOp2
 70
     1
102
RTVSPropertyOp3
 70
     1
102
RTVSPropertyOp4
 70
     1
102
RTVSPropertyOp5
 70
     1
102
RTVSPropertyOp6
 70
     1
102
RTVSPropertyOp7
 70
     1
102
RTVSPropertyOp8
 70
     1
102
RTVSPropertyOp9
 70
     1
102
RTVSPropertyOp10
 70
     1
102
RTVSPropertyOp11
 70
     1
102
RTVSPropertyOp12
 70
     1
102
RTVSPropertyOp13
 70
     1
102
RTVSPropertyOp14
 70
     1
102
RTVSPropertyOp15
 70
     1
102
RTVSPropertyOp16
 70
     1
102
RTVSPropertyOp17
 70
     1
102
RTVSPropertyOp18
 70
     1
102
RTVSPropertyOp19
 70
     1
102
RTVSPropertyOp20
 70
     1
102
RTVSPropertyOp21
 70
     1
102
RTVSPropertyOp22
 70
     1
102
RTVSPropertyOp23
 70
     1
102
RTVSPropertyOp24
 70
     1
102
RTVSPropertyOp25
 70
     1
102
RTVSPropertyOp26
 70
     1
102
RTVSPropertyOp27
 70
     1
102
RTVSPropertyOp28
 70
     1
102
RTVSPropertyOp29
 70
     1
102
RTVSPropertyOp30
 70
     1
102
RTVSPropertyOp31
 70
     1
102
RTVSPropertyOp32
 70
     1
  0
XRECORD
  5
5ED
102
{ACAD_REACTORS
330
5EC
102
}
330
5EC
100
AcDbXrecord
280
     1
102
RTVSPropertyOp0
 70
     1
102
RTVSPropertyOp1
 70
     1
102
RTVSPropertyOp2
 70
     1
102
RTVSPropertyOp3
 70
     1
102
RTVSPropertyOp4
 70
     1
102
RTVSPropertyOp5
 70
     1
102
RTVSPropertyOp6
 70
     1
102
RTVSPropertyOp7
 70
     1
102
RTVSPropertyOp8
 70
     1
102
RTVSPropertyOp9
 70
     1
102
RTVSPropertyOp10
 70
     1
102
RTVSPropertyOp11
 70
     1
102
RTVSPropertyOp12
 70
     1
102
RTVSPropertyOp13
 70
     1
102
RTVSPropertyOp14
 70
     1
102
RTVSPropertyOp15
 70
     1
102
RTVSPropertyOp16
 70
     1
102
RTVSPropertyOp17
 70
     1
102
RTVSPropertyOp18
 70
     1
102
RTVSPropertyOp19
 70
     1
102
RTVSPropertyOp20
 70
     1
102
RTVSPropertyOp21
 70
     1
102
RTVSPropertyOp22
 70
     1
102
RTVSPropertyOp23
 70
     1
102
RTVSPropertyOp24
 70
     1
102
RTVSPropertyOp25
 70
     1
102
RTVSPropertyOp26
 70
     1
102
RTVSPropertyOp27
 70
     1
102
RTVSPropertyOp28
 70
     1
102
RTVSPropertyOp29
 70
     1
102
RTVSPropertyOp30
 70
     1
102
RTVSPropertyOp31
 70
     1
102
RTVSPropertyOp32
 70
     1
  0
XRECORD
  5
5F1
102
{ACAD_REACTORS
330
5F0
102
}
330
5F0
100
AcDbXrecord
280
     1
102
RTVSPropertyOp0
 70
     1
102
RTVSPropertyOp1
 70
     1
102
RTVSPropertyOp2
 70
     1
102
RTVSPropertyOp3
 70
     1
102
RTVSPropertyOp4
 70
     1
102
RTVSPropertyOp5
 70
     1
102
RTVSPropertyOp6
 70
     1
102
RTVSPropertyOp7
 70
     1
102
RTVSPropertyOp8
 70
     1
102
RTVSPropertyOp9
 70
     1
102
RTVSPropertyOp10
 70
     1
102
RTVSPropertyOp11
 70
     1
102
RTVSPropertyOp12
 70
     1
102
RTVSPropertyOp13
 70
     1
102
RTVSPropertyOp14
 70
     1
102
RTVSPropertyOp15
 70
     1
102
RTVSPropertyOp16
 70
     1
102
RTVSPropertyOp17
 70
     1
102
RTVSPropertyOp18
 70
     1
102
RTVSPropertyOp19
 70
     1
102
RTVSPropertyOp20
 70
     1
102
RTVSPropertyOp21
 70
     1
102
RTVSPropertyOp22
 70
     1
102
RTVSPropertyOp23
 70
     1
102
RTVSPropertyOp24
 70
     1
102
RTVSPropertyOp25
 70
     1
102
RTVSPropertyOp26
 70
     1
102
RTVSPropertyOp27
 70
     1
102
RTVSPropertyOp28
 70
     1
102
RTVSPropertyOp29
 70
     1
102
RTVSPropertyOp30
 70
     1
102
RTVSPropertyOp31
 70
     1
102
RTVSPropertyOp32
 70
     1
  0
XRECORD
  5
60B
102
{ACAD_REACTORS
330
60A
102
}
330
60A
100
AcDbXrecord
280
     1
102
RTVSPropertyOp0
 70
     0
102
RTVSPropertyOp1
 70
     0
102
RTVSPropertyOp2
 70
     0
102
RTVSPropertyOp3
 70
     0
102
RTVSPropertyOp4
 70
     0
102
RTVSPropertyOp5
 70
     0
102
RTVSPropertyOp6
 70
     0
102
RTVSPropertyOp7
 70
     0
102
RTVSPropertyOp8
 70
     0
102
RTVSPropertyOp9
 70
     0
102
RTVSPropertyOp10
 70
     0
102
RTVSPropertyOp11
 70
     0
102
RTVSPropertyOp12
 70
     0
102
RTVSPropertyOp13
 70
     0
102
RTVSPropertyOp14
 70
     2
102
RTVSPropertyOp15
 70
     0
102
RTVSPropertyOp16
 70
     0
102
RTVSPropertyOp17
 70
     0
102
RTVSPropertyOp18
 70
     0
102
RTVSPropertyOp19
 70
     0
102
RTVSPropertyOp20
 70
     0
102
RTVSPropertyOp21
 70
     0
102
RTVSPropertyOp22
 70
     0
102
RTVSPropertyOp23
 70
     0
102
RTVSPropertyOp24
 70
     0
102
RTVSPropertyOp25
 70
     0
102
RTVSPropertyOp26
 70
     0
102
RTVSPropertyOp27
 70
     0
102
RTVSPropertyOp28
 70
     0
102
RTVSPropertyOp29
 70
     0
102
RTVSPropertyOp30
 70
     0
102
RTVSPropertyOp31
 70
     0
102
RTVSPropertyOp32
 70
     0
  0
XRECORD
  5
5F9
102
{ACAD_REACTORS
330
5F8
102
}
330
5F8
100
AcDbXrecord
280
     1
102
RTVSPropertyOp0
 70
     1
102
RTVSPropertyOp1
 70
     1
102
RTVSPropertyOp2
 70
     1
102
RTVSPropertyOp3
 70
     1
102
RTVSPropertyOp4
 70
     1
102
RTVSPropertyOp5
 70
     1
102
RTVSPropertyOp6
 70
     1
102
RTVSPropertyOp7
 70
     1
102
RTVSPropertyOp8
 70
     1
102
RTVSPropertyOp9
 70
     1
102
RTVSPropertyOp10
 70
     1
102
RTVSPropertyOp11
 70
     1
102
RTVSPropertyOp12
 70
     1
102
RTVSPropertyOp13
 70
     1
102
RTVSPropertyOp14
 70
     1
102
RTVSPropertyOp15
 70
     1
102
RTVSPropertyOp16
 70
     1
102
RTVSPropertyOp17
 70
     1
102
RTVSPropertyOp18
 70
     1
102
RTVSPropertyOp19
 70
     1
102
RTVSPropertyOp20
 70
     1
102
RTVSPropertyOp21
 70
     1
102
RTVSPropertyOp22
 70
     1
102
RTVSPropertyOp23
 70
     1
102
RTVSPropertyOp24
 70
     1
102
RTVSPropertyOp25
 70
     1
102
RTVSPropertyOp26
 70
     1
102
RTVSPropertyOp27
 70
     1
102
RTVSPropertyOp28
 70
     1
102
RTVSPropertyOp29
 70
     1
102
RTVSPropertyOp30
 70
     1
102
RTVSPropertyOp31
 70
     1
102
RTVSPropertyOp32
 70
     1
  0
XRECORD
  5
5DD
102
{ACAD_REACTORS
330
5DC
102
}
330
5DC
100
AcDbXrecord
280
     1
102
RTVSPropertyOp0
 70
     1
102
RTVSPropertyOp1
 70
     1
102
RTVSPropertyOp2
 70
     1
102
RTVSPropertyOp3
 70
     1
102
RTVSPropertyOp4
 70
     1
102
RTVSPropertyOp5
 70
     1
102
RTVSPropertyOp6
 70
     1
102
RTVSPropertyOp7
 70
     1
102
RTVSPropertyOp8
 70
     1
102
RTVSPropertyOp9
 70
     1
102
RTVSPropertyOp10
 70
     1
102
RTVSPropertyOp11
 70
     1
102
RTVSPropertyOp12
 70
     1
102
RTVSPropertyOp13
 70
     1
102
RTVSPropertyOp14
 70
     1
102
RTVSPropertyOp15
 70
     1
102
RTVSPropertyOp16
 70
     1
102
RTVSPropertyOp17
 70
     1
102
RTVSPropertyOp18
 70
     1
102
RTVSPropertyOp19
 70
     1
102
RTVSPropertyOp20
 70
     1
102
RTVSPropertyOp21
 70
     1
102
RTVSPropertyOp22
 70
     1
102
RTVSPropertyOp23
 70
     1
102
RTVSPropertyOp24
 70
     1
102
RTVSPropertyOp25
 70
     1
102
RTVSPropertyOp26
 70
     1
102
RTVSPropertyOp27
 70
     1
102
RTVSPropertyOp28
 70
     1
102
RTVSPropertyOp29
 70
     1
102
RTVSPropertyOp30
 70
     1
102
RTVSPropertyOp31
 70
     1
102
RTVSPropertyOp32
 70
     1
  0
XRECORD
  5
5DF
102
{ACAD_REACTORS
330
5DE
102
}
330
5DE
100
AcDbXrecord
280
     1
102
RTVSPropertyOp0
 70
     1
102
RTVSPropertyOp1
 70
     1
102
RTVSPropertyOp2
 70
     1
102
RTVSPropertyOp3
 70
     1
102
RTVSPropertyOp4
 70
     1
102
RTVSPropertyOp5
 70
     1
102
RTVSPropertyOp6
 70
     1
102
RTVSPropertyOp7
 70
     1
102
RTVSPropertyOp8
 70
     1
102
RTVSPropertyOp9
 70
     1
102
RTVSPropertyOp10
 70
     1
102
RTVSPropertyOp11
 70
     1
102
RTVSPropertyOp12
 70
     1
102
RTVSPropertyOp13
 70
     1
102
RTVSPropertyOp14
 70
     1
102
RTVSPropertyOp15
 70
     1
102
RTVSPropertyOp16
 70
     1
102
RTVSPropertyOp17
 70
     1
102
RTVSPropertyOp18
 70
     1
102
RTVSPropertyOp19
 70
     1
102
RTVSPropertyOp20
 70
     1
102
RTVSPropertyOp21
 70
     1
102
RTVSPropertyOp22
 70
     1
102
RTVSPropertyOp23
 70
     1
102
RTVSPropertyOp24
 70
     1
102
RTVSPropertyOp25
 70
     1
102
RTVSPropertyOp26
 70
     1
102
RTVSPropertyOp27
 70
     1
102
RTVSPropertyOp28
 70
     1
102
RTVSPropertyOp29
 70
     1
102
RTVSPropertyOp30
 70
     1
102
RTVSPropertyOp31
 70
     1
102
RTVSPropertyOp32
 70
     1
  0
XRECORD
  5
5E1
102
{ACAD_REACTORS
330
5E0
102
}
330
5E0
100
AcDbXrecord
280
     1
102
RTVSPropertyOp0
 70
     1
102
RTVSPropertyOp1
 70
     1
102
RTVSPropertyOp2
 70
     1
102
RTVSPropertyOp3
 70
     1
102
RTVSPropertyOp4
 70
     1
102
RTVSPropertyOp5
 70
     1
102
RTVSPropertyOp6
 70
     1
102
RTVSPropertyOp7
 70
     1
102
RTVSPropertyOp8
 70
     1
102
RTVSPropertyOp9
 70
     1
102
RTVSPropertyOp10
 70
     1
102
RTVSPropertyOp11
 70
     1
102
RTVSPropertyOp12
 70
     1
102
RTVSPropertyOp13
 70
     1
102
RTVSPropertyOp14
 70
     1
102
RTVSPropertyOp15
 70
     1
102
RTVSPropertyOp16
 70
     1
102
RTVSPropertyOp17
 70
     1
102
RTVSPropertyOp18
 70
     1
102
RTVSPropertyOp19
 70
     1
102
RTVSPropertyOp20
 70
     1
102
RTVSPropertyOp21
 70
     1
102
RTVSPropertyOp22
 70
     1
102
RTVSPropertyOp23
 70
     1
102
RTVSPropertyOp24
 70
     1
102
RTVSPropertyOp25
 70
     1
102
RTVSPropertyOp26
 70
     1
102
RTVSPropertyOp27
 70
     1
102
RTVSPropertyOp28
 70
     1
102
RTVSPropertyOp29
 70
     1
102
RTVSPropertyOp30
 70
     1
102
RTVSPropertyOp31
 70
     1
102
RTVSPropertyOp32
 70
     1
  0
XRECORD
  5
5E3
102
{ACAD_REACTORS
330
5E2
102
}
330
5E2
100
AcDbXrecord
280
     1
102
RTVSPropertyOp0
 70
     1
102
RTVSPropertyOp1
 70
     1
102
RTVSPropertyOp2
 70
     1
102
RTVSPropertyOp3
 70
     1
102
RTVSPropertyOp4
 70
     1
102
RTVSPropertyOp5
 70
     1
102
RTVSPropertyOp6
 70
     1
102
RTVSPropertyOp7
 70
     1
102
RTVSPropertyOp8
 70
     1
102
RTVSPropertyOp9
 70
     1
102
RTVSPropertyOp10
 70
     1
102
RTVSPropertyOp11
 70
     1
102
RTVSPropertyOp12
 70
     1
102
RTVSPropertyOp13
 70
     1
102
RTVSPropertyOp14
 70
     1
102
RTVSPropertyOp15
 70
     1
102
RTVSPropertyOp16
 70
     1
102
RTVSPropertyOp17
 70
     1
102
RTVSPropertyOp18
 70
     1
102
RTVSPropertyOp19
 70
     1
102
RTVSPropertyOp20
 70
     1
102
RTVSPropertyOp21
 70
     1
102
RTVSPropertyOp22
 70
     1
102
RTVSPropertyOp23
 70
     1
102
RTVSPropertyOp24
 70
     1
102
RTVSPropertyOp25
 70
     1
102
RTVSPropertyOp26
 70
     1
102
RTVSPropertyOp27
 70
     1
102
RTVSPropertyOp28
 70
     1
102
RTVSPropertyOp29
 70
     1
102
RTVSPropertyOp30
 70
     1
102
RTVSPropertyOp31
 70
     1
102
RTVSPropertyOp32
 70
     1
  0
XRECORD
  5
5EB
102
{ACAD_REACTORS
330
5EA
102
}
330
5EA
100
AcDbXrecord
280
     1
102
RTVSPropertyOp0
 70
     1
102
RTVSPropertyOp1
 70
     1
102
RTVSPropertyOp2
 70
     1
102
RTVSPropertyOp3
 70
     1
102
RTVSPropertyOp4
 70
     1
102
RTVSPropertyOp5
 70
     1
102
RTVSPropertyOp6
 70
     1
102
RTVSPropertyOp7
 70
     1
102
RTVSPropertyOp8
 70
     1
102
RTVSPropertyOp9
 70
     1
102
RTVSPropertyOp10
 70
     1
102
RTVSPropertyOp11
 70
     1
102
RTVSPropertyOp12
 70
     1
102
RTVSPropertyOp13
 70
     1
102
RTVSPropertyOp14
 70
     1
102
RTVSPropertyOp15
 70
     1
102
RTVSPropertyOp16
 70
     1
102
RTVSPropertyOp17
 70
     1
102
RTVSPropertyOp18
 70
     1
102
RTVSPropertyOp19
 70
     1
102
RTVSPropertyOp20
 70
     1
102
RTVSPropertyOp21
 70
     1
102
RTVSPropertyOp22
 70
     1
102
RTVSPropertyOp23
 70
     1
102
RTVSPropertyOp24
 70
     1
102
RTVSPropertyOp25
 70
     1
102
RTVSPropertyOp26
 70
     1
102
RTVSPropertyOp27
 70
     1
102
RTVSPropertyOp28
 70
     1
102
RTVSPropertyOp29
 70
     1
102
RTVSPropertyOp30
 70
     1
102
RTVSPropertyOp31
 70
     1
102
RTVSPropertyOp32
 70
     1
  0
XRECORD
  5
607
102
{ACAD_REACTORS
330
606
102
}
330
606
100
AcDbXrecord
280
     1
102
RTVSPropertyOp0
 70
     0
102
RTVSPropertyOp1
 70
     0
102
RTVSPropertyOp2
 70
     0
102
RTVSPropertyOp3
 70
     0
102
RTVSPropertyOp4
 70
     0
102
RTVSPropertyOp5
 70
     0
102
RTVSPropertyOp6
 70
     0
102
RTVSPropertyOp7
 70
     0
102
RTVSPropertyOp8
 70
     0
102
RTVSPropertyOp9
 70
     0
102
RTVSPropertyOp10
 70
     0
102
RTVSPropertyOp11
 70
     0
102
RTVSPropertyOp12
 70
     0
102
RTVSPropertyOp13
 70
     0
102
RTVSPropertyOp14
 70
     2
102
RTVSPropertyOp15
 70
     0
102
RTVSPropertyOp16
 70
     0
102
RTVSPropertyOp17
 70
     0
102
RTVSPropertyOp18
 70
     0
102
RTVSPropertyOp19
 70
     0
102
RTVSPropertyOp20
 70
     0
102
RTVSPropertyOp21
 70
     0
102
RTVSPropertyOp22
 70
     0
102
RTVSPropertyOp23
 70
     0
102
RTVSPropertyOp24
 70
     0
102
RTVSPropertyOp25
 70
     0
102
RTVSPropertyOp26
 70
     0
102
RTVSPropertyOp27
 70
     0
102
RTVSPropertyOp28
 70
     0
102
RTVSPropertyOp29
 70
     0
102
RTVSPropertyOp30
 70
     0
102
RTVSPropertyOp31
 70
     0
102
RTVSPropertyOp32
 70
     0
  0
XRECORD
  5
5F7
102
{ACAD_REACTORS
330
5F6
102
}
330
5F6
100
AcDbXrecord
280
     1
102
RTVSPropertyOp0
 70
     1
102
RTVSPropertyOp1
 70
     1
102
RTVSPropertyOp2
 70
     1
102
RTVSPropertyOp3
 70
     1
102
RTVSPropertyOp4
 70
     1
102
RTVSPropertyOp5
 70
     1
102
RTVSPropertyOp6
 70
     1
102
RTVSPropertyOp7
 70
     1
102
RTVSPropertyOp8
 70
     1
102
RTVSPropertyOp9
 70
     1
102
RTVSPropertyOp10
 70
     1
102
RTVSPropertyOp11
 70
     1
102
RTVSPropertyOp12
 70
     1
102
RTVSPropertyOp13
 70
     1
102
RTVSPropertyOp14
 70
     1
102
RTVSPropertyOp15
 70
     1
102
RTVSPropertyOp16
 70
     1
102
RTVSPropertyOp17
 70
     1
102
RTVSPropertyOp18
 70
     1
102
RTVSPropertyOp19
 70
     1
102
RTVSPropertyOp20
 70
     1
102
RTVSPropertyOp21
 70
     1
102
RTVSPropertyOp22
 70
     1
102
RTVSPropertyOp23
 70
     1
102
RTVSPropertyOp24
 70
     1
102
RTVSPropertyOp25
 70
     1
102
RTVSPropertyOp26
 70
     1
102
RTVSPropertyOp27
 70
     1
102
RTVSPropertyOp28
 70
     1
102
RTVSPropertyOp29
 70
     1
102
RTVSPropertyOp30
 70
     1
102
RTVSPropertyOp31
 70
     1
102
RTVSPropertyOp32
 70
     1
  0
XRECORD
  5
609
102
{ACAD_REACTORS
330
608
102
}
330
608
100
AcDbXrecord
280
     1
102
RTVSPropertyOp0
 70
     0
102
RTVSPropertyOp1
 70
     0
102
RTVSPropertyOp2
 70
     0
102
RTVSPropertyOp3
 70
     0
102
RTVSPropertyOp4
 70
     0
102
RTVSPropertyOp5
 70
     0
102
RTVSPropertyOp6
 70
     0
102
RTVSPropertyOp7
 70
     0
102
RTVSPropertyOp8
 70
     0
102
RTVSPropertyOp9
 70
     0
102
RTVSPropertyOp10
 70
     0
102
RTVSPropertyOp11
 70
     0
102
RTVSPropertyOp12
 70
     0
102
RTVSPropertyOp13
 70
     0
102
RTVSPropertyOp14
 70
     2
102
RTVSPropertyOp15
 70
     0
102
RTVSPropertyOp16
 70
     0
102
RTVSPropertyOp17
 70
     0
102
RTVSPropertyOp18
 70
     0
102
RTVSPropertyOp19
 70
     0
102
RTVSPropertyOp20
 70
     0
102
RTVSPropertyOp21
 70
     0
102
RTVSPropertyOp22
 70
     0
102
RTVSPropertyOp23
 70
     0
102
RTVSPropertyOp24
 70
     0
102
RTVSPropertyOp25
 70
     0
102
RTVSPropertyOp26
 70
     0
102
RTVSPropertyOp27
 70
     0
102
RTVSPropertyOp28
 70
     0
102
RTVSPropertyOp29
 70
     0
102
RTVSPropertyOp30
 70
     0
102
RTVSPropertyOp31
 70
     0
102
RTVSPropertyOp32
 70
     0
  0
XRECORD
  5
5EF
102
{ACAD_REACTORS
330
5EE
102
}
330
5EE
100
AcDbXrecord
280
     1
102
RTVSPropertyOp0
 70
     1
102
RTVSPropertyOp1
 70
     1
102
RTVSPropertyOp2
 70
     1
102
RTVSPropertyOp3
 70
     1
102
RTVSPropertyOp4
 70
     1
102
RTVSPropertyOp5
 70
     1
102
RTVSPropertyOp6
 70
     1
102
RTVSPropertyOp7
 70
     1
102
RTVSPropertyOp8
 70
     1
102
RTVSPropertyOp9
 70
     1
102
RTVSPropertyOp10
 70
     1
102
RTVSPropertyOp11
 70
     1
102
RTVSPropertyOp12
 70
     1
102
RTVSPropertyOp13
 70
     1
102
RTVSPropertyOp14
 70
     1
102
RTVSPropertyOp15
 70
     1
102
RTVSPropertyOp16
 70
     1
102
RTVSPropertyOp17
 70
     1
102
RTVSPropertyOp18
 70
     1
102
RTVSPropertyOp19
 70
     1
102
RTVSPropertyOp20
 70
     1
102
RTVSPropertyOp21
 70
     1
102
RTVSPropertyOp22
 70
     1
102
RTVSPropertyOp23
 70
     1
102
RTVSPropertyOp24
 70
     1
102
RTVSPropertyOp25
 70
     1
102
RTVSPropertyOp26
 70
     1
102
RTVSPropertyOp27
 70
     1
102
RTVSPropertyOp28
 70
     1
102
RTVSPropertyOp29
 70
     1
102
RTVSPropertyOp30
 70
     1
102
RTVSPropertyOp31
 70
     1
102
RTVSPropertyOp32
 70
     1
  0
XRECORD
  5
605
102
{ACAD_REACTORS
330
604
102
}
330
604
100
AcDbXrecord
280
     1
102
RTVSPropertyOp0
 70
     1
102
RTVSPropertyOp1
 70
     1
102
RTVSPropertyOp2
 70
     1
102
RTVSPropertyOp3
 70
     1
102
RTVSPropertyOp4
 70
     1
102
RTVSPropertyOp5
 70
     1
102
RTVSPropertyOp6
 70
     1
102
RTVSPropertyOp7
 70
     1
102
RTVSPropertyOp8
 70
     1
102
RTVSPropertyOp9
 70
     1
102
RTVSPropertyOp10
 70
     1
102
RTVSPropertyOp11
 70
     1
102
RTVSPropertyOp12
 70
     1
102
RTVSPropertyOp13
 70
     1
102
RTVSPropertyOp14
 70
     1
102
RTVSPropertyOp15
 70
     1
102
RTVSPropertyOp16
 70
     1
102
RTVSPropertyOp17
 70
     1
102
RTVSPropertyOp18
 70
     1
102
RTVSPropertyOp19
 70
     1
102
RTVSPropertyOp20
 70
     1
102
RTVSPropertyOp21
 70
     1
102
RTVSPropertyOp22
 70
     1
102
RTVSPropertyOp23
 70
     1
102
RTVSPropertyOp24
 70
     1
102
RTVSPropertyOp25
 70
     1
102
RTVSPropertyOp26
 70
     1
102
RTVSPropertyOp27
 70
     1
102
RTVSPropertyOp28
 70
     1
102
RTVSPropertyOp29
 70
     1
102
RTVSPropertyOp30
 70
     1
102
RTVSPropertyOp31
 70
     1
102
RTVSPropertyOp32
 70
     1
  0
XRECORD
  5
603
102
{ACAD_REACTORS
330
602
102
}
330
602
100
AcDbXrecord
280
     1
102
RTVSPropertyOp0
 70
     1
102
RTVSPropertyOp1
 70
     1
102
RTVSPropertyOp2
 70
     1
102
RTVSPropertyOp3
 70
     1
102
RTVSPropertyOp4
 70
     1
102
RTVSPropertyOp5
 70
     1
102
RTVSPropertyOp6
 70
     1
102
RTVSPropertyOp7
 70
     1
102
RTVSPropertyOp8
 70
     1
102
RTVSPropertyOp9
 70
     1
102
RTVSPropertyOp10
 70
     1
102
RTVSPropertyOp11
 70
     1
102
RTVSPropertyOp12
 70
     1
102
RTVSPropertyOp13
 70
     1
102
RTVSPropertyOp14
 70
     1
102
RTVSPropertyOp15
 70
     1
102
RTVSPropertyOp16
 70
     1
102
RTVSPropertyOp17
 70
     1
102
RTVSPropertyOp18
 70
     1
102
RTVSPropertyOp19
 70
     1
102
RTVSPropertyOp20
 70
     1
102
RTVSPropertyOp21
 70
     1
102
RTVSPropertyOp22
 70
     1
102
RTVSPropertyOp23
 70
     1
102
RTVSPropertyOp24
 70
     1
102
RTVSPropertyOp25
 70
     1
102
RTVSPropertyOp26
 70
     1
102
RTVSPropertyOp27
 70
     1
102
RTVSPropertyOp28
 70
     1
102
RTVSPropertyOp29
 70
     1
102
RTVSPropertyOp30
 70
     1
102
RTVSPropertyOp31
 70
     1
102
RTVSPropertyOp32
 70
     1
  0
XRECORD
  5
5FD
102
{ACAD_REACTORS
330
5FC
102
}
330
5FC
100
AcDbXrecord
280
     1
102
RTVSPropertyOp0
 70
     1
102
RTVSPropertyOp1
 70
     1
102
RTVSPropertyOp2
 70
     1
102
RTVSPropertyOp3
 70
     1
102
RTVSPropertyOp4
 70
     1
102
RTVSPropertyOp5
 70
     1
102
RTVSPropertyOp6
 70
     1
102
RTVSPropertyOp7
 70
     1
102
RTVSPropertyOp8
 70
     1
102
RTVSPropertyOp9
 70
     1
102
RTVSPropertyOp10
 70
     1
102
RTVSPropertyOp11
 70
     1
102
RTVSPropertyOp12
 70
     1
102
RTVSPropertyOp13
 70
     1
102
RTVSPropertyOp14
 70
     1
102
RTVSPropertyOp15
 70
     1
102
RTVSPropertyOp16
 70
     1
102
RTVSPropertyOp17
 70
     1
102
RTVSPropertyOp18
 70
     1
102
RTVSPropertyOp19
 70
     1
102
RTVSPropertyOp20
 70
     1
102
RTVSPropertyOp21
 70
     1
102
RTVSPropertyOp22
 70
     1
102
RTVSPropertyOp23
 70
     1
102
RTVSPropertyOp24
 70
     1
102
RTVSPropertyOp25
 70
     1
102
RTVSPropertyOp26
 70
     1
102
RTVSPropertyOp27
 70
     1
102
RTVSPropertyOp28
 70
     1
102
RTVSPropertyOp29
 70
     1
102
RTVSPropertyOp30
 70
     1
102
RTVSPropertyOp31
 70
     1
102
RTVSPropertyOp32
 70
     1
  0
XRECORD
  5
5FF
102
{ACAD_REACTORS
330
5FE
102
}
330
5FE
100
AcDbXrecord
280
     1
102
RTVSPropertyOp0
 70
     1
102
RTVSPropertyOp1
 70
     1
102
RTVSPropertyOp2
 70
     1
102
RTVSPropertyOp3
 70
     1
102
RTVSPropertyOp4
 70
     1
102
RTVSPropertyOp5
 70
     1
102
RTVSPropertyOp6
 70
     1
102
RTVSPropertyOp7
 70
     1
102
RTVSPropertyOp8
 70
     1
102
RTVSPropertyOp9
 70
     1
102
RTVSPropertyOp10
 70
     1
102
RTVSPropertyOp11
 70
     1
102
RTVSPropertyOp12
 70
     1
102
RTVSPropertyOp13
 70
     1
102
RTVSPropertyOp14
 70
     1
102
RTVSPropertyOp15
 70
     1
102
RTVSPropertyOp16
 70
     1
102
RTVSPropertyOp17
 70
     1
102
RTVSPropertyOp18
 70
     1
102
RTVSPropertyOp19
 70
     1
102
RTVSPropertyOp20
 70
     1
102
RTVSPropertyOp21
 70
     1
102
RTVSPropertyOp22
 70
     1
102
RTVSPropertyOp23
 70
     1
102
RTVSPropertyOp24
 70
     1
102
RTVSPropertyOp25
 70
     1
102
RTVSPropertyOp26
 70
     1
102
RTVSPropertyOp27
 70
     1
102
RTVSPropertyOp28
 70
     1
102
RTVSPropertyOp29
 70
     1
102
RTVSPropertyOp30
 70
     1
102
RTVSPropertyOp31
 70
     1
102
RTVSPropertyOp32
 70
     1
  0
XRECORD
  5
5F5
102
{ACAD_REACTORS
330
5F4
102
}
330
5F4
100
AcDbXrecord
280
     1
102
RTVSPropertyOp0
 70
     1
102
RTVSPropertyOp1
 70
     1
102
RTVSPropertyOp2
 70
     1
102
RTVSPropertyOp3
 70
     1
102
RTVSPropertyOp4
 70
     1
102
RTVSPropertyOp5
 70
     1
102
RTVSPropertyOp6
 70
     1
102
RTVSPropertyOp7
 70
     1
102
RTVSPropertyOp8
 70
     1
102
RTVSPropertyOp9
 70
     1
102
RTVSPropertyOp10
 70
     1
102
RTVSPropertyOp11
 70
     1
102
RTVSPropertyOp12
 70
     1
102
RTVSPropertyOp13
 70
     1
102
RTVSPropertyOp14
 70
     1
102
RTVSPropertyOp15
 70
     1
102
RTVSPropertyOp16
 70
     1
102
RTVSPropertyOp17
 70
     1
102
RTVSPropertyOp18
 70
     1
102
RTVSPropertyOp19
 70
     1
102
RTVSPropertyOp20
 70
     1
102
RTVSPropertyOp21
 70
     1
102
RTVSPropertyOp22
 70
     1
102
RTVSPropertyOp23
 70
     1
102
RTVSPropertyOp24
 70
     1
102
RTVSPropertyOp25
 70
     1
102
RTVSPropertyOp26
 70
     1
102
RTVSPropertyOp27
 70
     1
102
RTVSPropertyOp28
 70
     1
102
RTVSPropertyOp29
 70
     1
102
RTVSPropertyOp30
 70
     1
102
RTVSPropertyOp31
 70
     1
102
RTVSPropertyOp32
 70
     1
  0
XRECORD
  5
5E9
102
{ACAD_REACTORS
330
5E8
102
}
330
5E8
100
AcDbXrecord
280
     1
102
RTVSPropertyOp0
 70
     1
102
RTVSPropertyOp1
 70
     1
102
RTVSPropertyOp2
 70
     1
102
RTVSPropertyOp3
 70
     1
102
RTVSPropertyOp4
 70
     1
102
RTVSPropertyOp5
 70
     1
102
RTVSPropertyOp6
 70
     1
102
RTVSPropertyOp7
 70
     1
102
RTVSPropertyOp8
 70
     1
102
RTVSPropertyOp9
 70
     1
102
RTVSPropertyOp10
 70
     1
102
RTVSPropertyOp11
 70
     1
102
RTVSPropertyOp12
 70
     1
102
RTVSPropertyOp13
 70
     1
102
RTVSPropertyOp14
 70
     1
102
RTVSPropertyOp15
 70
     1
102
RTVSPropertyOp16
 70
     1
102
RTVSPropertyOp17
 70
     1
102
RTVSPropertyOp18
 70
     1
102
RTVSPropertyOp19
 70
     1
102
RTVSPropertyOp20
 70
     1
102
RTVSPropertyOp21
 70
     1
102
RTVSPropertyOp22
 70
     1
102
RTVSPropertyOp23
 70
     1
102
RTVSPropertyOp24
 70
     1
102
RTVSPropertyOp25
 70
     1
102
RTVSPropertyOp26
 70
     1
102
RTVSPropertyOp27
 70
     1
102
RTVSPropertyOp28
 70
     1
102
RTVSPropertyOp29
 70
     1
102
RTVSPropertyOp30
 70
     1
102
RTVSPropertyOp31
 70
     1
102
RTVSPropertyOp32
 70
     1
  0
XRECORD
  5
601
102
{ACAD_REACTORS
330
600
102
}
330
600
100
AcDbXrecord
280
     1
102
RTVSPropertyOp0
 70
     1
102
RTVSPropertyOp1
 70
     1
102
RTVSPropertyOp2
 70
     1
102
RTVSPropertyOp3
 70
     1
102
RTVSPropertyOp4
 70
     1
102
RTVSPropertyOp5
 70
     1
102
RTVSPropertyOp6
 70
     1
102
RTVSPropertyOp7
 70
     1
102
RTVSPropertyOp8
 70
     1
102
RTVSPropertyOp9
 70
     1
102
RTVSPropertyOp10
 70
     1
102
RTVSPropertyOp11
 70
     1
102
RTVSPropertyOp12
 70
     1
102
RTVSPropertyOp13
 70
     1
102
RTVSPropertyOp14
 70
     1
102
RTVSPropertyOp15
 70
     1
102
RTVSPropertyOp16
 70
     1
102
RTVSPropertyOp17
 70
     1
102
RTVSPropertyOp18
 70
     1
102
RTVSPropertyOp19
 70
     1
102
RTVSPropertyOp20
 70
     1
102
RTVSPropertyOp21
 70
     1
102
RTVSPropertyOp22
 70
     1
102
RTVSPropertyOp23
 70
     1
102
RTVSPropertyOp24
 70
     1
102
RTVSPropertyOp25
 70
     1
102
RTVSPropertyOp26
 70
     1
102
RTVSPropertyOp27
 70
     1
102
RTVSPropertyOp28
 70
     1
102
RTVSPropertyOp29
 70
     1
102
RTVSPropertyOp30
 70
     1
102
RTVSPropertyOp31
 70
     1
102
RTVSPropertyOp32
 70
     1
  0
ENDSEC
  0
EOF
