  0
SECTION
  2
HEADER
  9
$ACADVER
  1
AC1021
  9
$ACADMAINTVER
 70
    25
  9
$DWGCODEPAGE
  3
ANSI_936
  9
$LASTSAVEDBY
  1
Hillman
  9
$INSBASE
 10
0.0
 20
0.0
 30
0.0
  9
$EXTMIN
 10
253.8289056528382
 20
-145.0572903119583
 30
0.0
  9
$EXTMAX
 10
738.2203968769679
 20
220.9896193001803
 30
0.0
  9
$LIMMIN
 10
0.0
 20
0.0
  9
$LIMMAX
 10
420.0
 20
297.0
  9
$ORTHOMODE
 70
     0
  9
$REGENMODE
 70
     1
  9
$FILLMODE
 70
     1
  9
$QTEXTMODE
 70
     0
  9
$MIRRTEXT
 70
     0
  9
$LTSCALE
 40
1.0
  9
$ATTMODE
 70
     1
  9
$TEXTSIZE
 40
2.5
  9
$TRACEWID
 40
1.0
  9
$TEXTSTYLE
  7
Standard
  9
$CLAYER
  8
0
  9
$CELTYPE
  6
ByLayer
  9
$CECOLOR
 62
   256
  9
$CELTSCALE
 40
1.0
  9
$DISPSILH
 70
     0
  9
$DIMSCALE
 40
1.0
  9
$DIMASZ
 40
2.5
  9
$DIMEXO
 40
0.625
  9
$DIMDLI
 40
3.75
  9
$DIMRND
 40
0.0
  9
$DIMDLE
 40
0.0
  9
$DIMEXE
 40
1.25
  9
$DIMTP
 40
0.0
  9
$DIMTM
 40
0.0
  9
$DIMTXT
 40
2.5
  9
$DIMCEN
 40
2.5
  9
$DIMTSZ
 40
0.0
  9
$DIMTOL
 70
     0
  9
$DIMLIM
 70
     0
  9
$DIMTIH
 70
     0
  9
$DIMTOH
 70
     0
  9
$DIMSE1
 70
     0
  9
$DIMSE2
 70
     0
  9
$DIMTAD
 70
     1
  9
$DIMZIN
 70
     8
  9
$DIMBLK
  1

  9
$DIMASO
 70
     1
  9
$DIMSHO
 70
     1
  9
$DIMPOST
  1

  9
$DIMAPOST
  1

  9
$DIMALT
 70
     1
  9
$DIMALTD
 70
     3
  9
$DIMALTF
 40
0.03937007874016
  9
$DIMLFAC
 40
1.0
  9
$DIMTOFL
 70
     1
  9
$DIMTVP
 40
0.0
  9
$DIMTIX
 70
     0
  9
$DIMSOXD
 70
     0
  9
$DIMSAH
 70
     0
  9
$DIMBLK1
  1

  9
$DIMBLK2
  1

  9
$DIMSTYLE
  2
ISO-25
  9
$DIMCLRD
 70
     0
  9
$DIMCLRE
 70
     0
  9
$DIMCLRT
 70
     0
  9
$DIMTFAC
 40
1.0
  9
$DIMGAP
 40
0.625
  9
$DIMJUST
 70
     0
  9
$DIMSD1
 70
     0
  9
$DIMSD2
 70
     0
  9
$DIMTOLJ
 70
     0
  9
$DIMTZIN
 70
     8
  9
$DIMALTZ
 70
     0
  9
$DIMALTTZ
 70
     0
  9
$DIMUPT
 70
     0
  9
$DIMDEC
 70
     2
  9
$DIMTDEC
 70
     2
  9
$DIMALTU
 70
     7
  9
$DIMALTTD
 70
     3
  9
$DIMTXSTY
  7
Standard
  9
$DIMAUNIT
 70
     0
  9
$DIMADEC
 70
     0
  9
$DIMALTRND
 40
0.0
  9
$DIMAZIN
 70
     0
  9
$DIMDSEP
 70
    46
  9
$DIMATFIT
 70
     3
  9
$DIMFRAC
 70
     0
  9
$DIMLDRBLK
  1

  9
$DIMLUNIT
 70
     2
  9
$DIMLWD
 70
    -2
  9
$DIMLWE
 70
    -2
  9
$DIMTMOVE
 70
     0
  9
$DIMFXL
 40
1.0
  9
$DIMFXLON
 70
     0
  9
$DIMJOGANG
 40
0.7853981633974483
  9
$DIMTFILL
 70
     0
  9
$DIMTFILLCLR
 70
     0
  9
$DIMARCSYM
 70
     0
  9
$DIMLTYPE
  6

  9
$DIMLTEX1
  6

  9
$DIMLTEX2
  6

  9
$LUNITS
 70
     2
  9
$LUPREC
 70
     4
  9
$SKETCHINC
 40
1.0
  9
$FILLETRAD
 40
15.0
  9
$AUNITS
 70
     0
  9
$AUPREC
 70
     0
  9
$MENU
  1
.
  9
$ELEVATION
 40
0.0
  9
$PELEVATION
 40
0.0
  9
$THICKNESS
 40
0.0
  9
$LIMCHECK
 70
     0
  9
$CHAMFERA
 40
0.0
  9
$CHAMFERB
 40
0.0
  9
$CHAMFERC
 40
0.0
  9
$CHAMFERD
 40
0.0
  9
$SKPOLY
 70
     0
  9
$TDCREATE
 40
2455880.347173033
  9
$TDUCREATE
 40
2455880.013839699
  9
$TDUPDATE
 40
2456514.302821204
  9
$TDUUPDATE
 40
2456513.969487871
  9
$TDINDWG
 40
0.0671103241
  9
$TDUSRTIMER
 40
0.0670945370
  9
$USRTIMER
 70
     1
  9
$ANGBASE
 50
0.0
  9
$ANGDIR
 70
     0
  9
$PDMODE
 70
     0
  9
$PDSIZE
 40
0.0
  9
$PLINEWID
 40
0.0
  9
$SPLFRAME
 70
     0
  9
$SPLINETYPE
 70
     6
  9
$SPLINESEGS
 70
     8
  9
$HANDSEED
  5
2BA
  9
$SURFTAB1
 70
     6
  9
$SURFTAB2
 70
     6
  9
$SURFTYPE
 70
     6
  9
$SURFU
 70
     6
  9
$SURFV
 70
     6
  9
$UCSBASE
  2

  9
$UCSNAME
  2

  9
$UCSORG
 10
0.0
 20
0.0
 30
0.0
  9
$UCSXDIR
 10
1.0
 20
0.0
 30
0.0
  9
$UCSYDIR
 10
0.0
 20
1.0
 30
0.0
  9
$UCSORTHOREF
  2

  9
$UCSORTHOVIEW
 70
     0
  9
$UCSORGTOP
 10
0.0
 20
0.0
 30
0.0
  9
$UCSORGBOTTOM
 10
0.0
 20
0.0
 30
0.0
  9
$UCSORGLEFT
 10
0.0
 20
0.0
 30
0.0
  9
$UCSORGRIGHT
 10
0.0
 20
0.0
 30
0.0
  9
$UCSORGFRONT
 10
0.0
 20
0.0
 30
0.0
  9
$UCSORGBACK
 10
0.0
 20
0.0
 30
0.0
  9
$PUCSBASE
  2

  9
$PUCSNAME
  2

  9
$PUCSORG
 10
0.0
 20
0.0
 30
0.0
  9
$PUCSXDIR
 10
1.0
 20
0.0
 30
0.0
  9
$PUCSYDIR
 10
0.0
 20
1.0
 30
0.0
  9
$PUCSORTHOREF
  2

  9
$PUCSORTHOVIEW
 70
     0
  9
$PUCSORGTOP
 10
0.0
 20
0.0
 30
0.0
  9
$PUCSORGBOTTOM
 10
0.0
 20
0.0
 30
0.0
  9
$PUCSORGLEFT
 10
0.0
 20
0.0
 30
0.0
  9
$PUCSORGRIGHT
 10
0.0
 20
0.0
 30
0.0
  9
$PUCSORGFRONT
 10
0.0
 20
0.0
 30
0.0
  9
$PUCSORGBACK
 10
0.0
 20
0.0
 30
0.0
  9
$USERI1
 70
     0
  9
$USERI2
 70
     0
  9
$USERI3
 70
     0
  9
$USERI4
 70
     0
  9
$USERI5
 70
     0
  9
$USERR1
 40
0.0
  9
$USERR2
 40
0.0
  9
$USERR3
 40
0.0
  9
$USERR4
 40
0.0
  9
$USERR5
 40
0.0
  9
$WORLDVIEW
 70
     1
  9
$SHADEDGE
 70
     3
  9
$SHADEDIF
 70
    70
  9
$TILEMODE
 70
     1
  9
$MAXACTVP
 70
    64
  9
$PINSBASE
 10
0.0
 20
0.0
 30
0.0
  9
$PLIMCHECK
 70
     0
  9
$PEXTMIN
 10
1.000000000000000E+20
 20
1.000000000000000E+20
 30
1.000000000000000E+20
  9
$PEXTMAX
 10
-1.000000000000000E+20
 20
-1.000000000000000E+20
 30
-1.000000000000000E+20
  9
$PLIMMIN
 10
0.0
 20
0.0
  9
$PLIMMAX
 10
420.0
 20
297.0
  9
$UNITMODE
 70
     0
  9
$VISRETAIN
 70
     1
  9
$PLINEGEN
 70
     0
  9
$PSLTSCALE
 70
     1
  9
$TREEDEPTH
 70
  3020
  9
$CMLSTYLE
  2
Standard
  9
$CMLJUST
 70
     0
  9
$CMLSCALE
 40
20.0
  9
$PROXYGRAPHICS
 70
     1
  9
$MEASUREMENT
 70
     1
  9
$CELWEIGHT
370
    -1
  9
$ENDCAPS
280
     0
  9
$JOINSTYLE
280
     0
  9
$LWDISPLAY
290
     0
  9
$INSUNITS
 70
     4
  9
$HYPERLINKBASE
  1

  9
$STYLESHEET
  1

  9
$XEDIT
290
     1
  9
$CEPSNTYPE
380
     0
  9
$PSTYLEMODE
290
     1
  9
$FINGERPRINTGUID
  2
{CB1F124D-4BF8-46EC-AFCF-95FAF6CBECD4}
  9
$VERSIONGUID
  2
{90D1A13C-2DED-4E1A-A049-599B48BDBE46}
  9
$EXTNAMES
290
     1
  9
$PSVPSCALE
 40
0.0
  9
$OLESTARTUP
290
     0
  9
$SORTENTS
280
   127
  9
$INDEXCTL
280
     0
  9
$HIDETEXT
280
     1
  9
$XCLIPFRAME
290
     0
  9
$HALOGAP
280
     0
  9
$OBSCOLOR
 70
   257
  9
$OBSLTYPE
280
     0
  9
$INTERSECTIONDISPLAY
280
     0
  9
$INTERSECTIONCOLOR
 70
   257
  9
$DIMASSOC
280
     2
  9
$PROJECTNAME
  1

  9
$CAMERADISPLAY
290
     0
  9
$LENSLENGTH
 40
50.0
  9
$CAMERAHEIGHT
 40
0.0
  9
$STEPSPERSEC
 40
2.0
  9
$STEPSIZE
 40
6.0
  9
$3DDWFPREC
 40
2.0
  9
$PSOLWIDTH
 40
0.25
  9
$PSOLHEIGHT
 40
4.0
  9
$LOFTANG1
 40
1.570796326794896
  9
$LOFTANG2
 40
1.570796326794896
  9
$LOFTMAG1
 40
0.0
  9
$LOFTMAG2
 40
0.0
  9
$LOFTPARAM
 70
     7
  9
$LOFTNORMALS
280
     1
  9
$LATITUDE
 40
37.795
  9
$LONGITUDE
 40
-122.394
  9
$NORTHDIRECTION
 40
0.0
  9
$TIMEZONE
 70
 -8000
  9
$LIGHTGLYPHDISPLAY
280
     1
  9
$TILEMODELIGHTSYNCH
280
     1
  9
$CMATERIAL
347
254
  9
$SOLIDHIST
280
     1
  9
$SHOWHIST
280
     1
  9
$DWFFRAME
280
     2
  9
$DGNFRAME
280
     0
  9
$REALWORLDSCALE
290
     1
  9
$INTERFERECOLOR
 62
     1
  9
$INTERFEREOBJVS
345
276
  9
$INTERFEREVPVS
346
273
  9
$CSHADOW
280
     0
  9
$SHADOWPLANELOCATION
 40
0.0
  0
ENDSEC
  0
SECTION
  2
CLASSES
  0
CLASS
  1
ACDBDICTIONARYWDFLT
  2
AcDbDictionaryWithDefault
  3
ObjectDBX Classes
 90
        0
 91
        1
280
     0
281
     0
  0
CLASS
  1
DIMASSOC
  2
AcDbDimAssoc
  3
"AcDbDimAssoc|Product Desc:     AcDim ARX App For Dimension|Company:          Autodesk, Inc.|WEB Address:      www.autodesk.com"
 90
        0
 91
        0
280
     0
281
     0
  0
CLASS
  1
MATERIAL
  2
AcDbMaterial
  3
ObjectDBX Classes
 90
     1153
 91
        3
280
     0
281
     0
  0
CLASS
  1
VISUALSTYLE
  2
AcDbVisualStyle
  3
ObjectDBX Classes
 90
     4095
 91
       16
280
     0
281
     0
  0
CLASS
  1
TABLESTYLE
  2
AcDbTableStyle
  3
ObjectDBX Classes
 90
     4095
 91
        1
280
     0
281
     0
  0
CLASS
  1
SCALE
  2
AcDbScale
  3
ObjectDBX Classes
 90
     1153
 91
       33
280
     0
281
     0
  0
CLASS
  1
MLEADERSTYLE
  2
AcDbMLeaderStyle
  3
ACDB_MLEADERSTYLE_CLASS
 90
     4095
 91
        1
280
     0
281
     0
  0
CLASS
  1
SORTENTSTABLE
  2
AcDbSortentsTable
  3
ObjectDBX Classes
 90
        0
 91
        1
280
     0
281
     0
  0
CLASS
  1
DICTIONARYVAR
  2
AcDbDictionaryVar
  3
ObjectDBX Classes
 90
        0
 91
        5
280
     0
281
     0
  0
CLASS
  1
CELLSTYLEMAP
  2
AcDbCellStyleMap
  3
ObjectDBX Classes
 90
     1152
 91
        1
280
     0
281
     0
  0
ENDSEC
  0
SECTION
  2
TABLES
  0
TABLE
  2
VPORT
  5
8
330
0
100
AcDbSymbolTable
 70
     1
  0
VPORT
  5
251
330
8
100
AcDbSymbolTableRecord
100
AcDbViewportTableRecord
  2
*Active
 70
     0
 10
0.0
 20
0.0
 11
1.0
 21
1.0
 12
470.3144632469409
 22
60.98486301334372
 13
0.0
 23
0.0
 14
10.0
 24
10.0
 15
10.0
 25
10.0
 16
0.0
 26
0.0
 36
1.0
 17
0.0
 27
0.0
 37
0.0
 40
499.2739778390681
 41
2.564053537284894
 42
50.0
 43
0.0
 44
0.0
 50
0.0
 51
0.0
 71
     0
 72
  1000
 73
     1
 74
     3
 75
     0
 76
     0
 77
     0
 78
     0
281
     0
 65
     1
110
0.0
120
0.0
130
0.0
111
1.0
121
0.0
131
0.0
112
0.0
122
1.0
132
0.0
 79
     0
146
0.0
348
272
 60
     3
 61
     5
292
     1
282
     1
141
0.0
142
0.0
 63
   250
421
  3355443
  0
ENDTAB
  0
TABLE
  2
LTYPE
  5
5
330
0
100
AcDbSymbolTable
 70
     2
  0
LTYPE
  5
14
330
5
100
AcDbSymbolTableRecord
100
AcDbLinetypeTableRecord
  2
ByBlock
 70
     0
  3

 72
    65
 73
     0
 40
0.0
  0
LTYPE
  5
15
330
5
100
AcDbSymbolTableRecord
100
AcDbLinetypeTableRecord
  2
ByLayer
 70
     0
  3

 72
    65
 73
     0
 40
0.0
  0
LTYPE
  5
16
330
5
100
AcDbSymbolTableRecord
100
AcDbLinetypeTableRecord
  2
Continuous
 70
     0
  3
Solid line
 72
    65
 73
     0
 40
0.0
  0
LTYPE
  5
36
330
5
100
AcDbSymbolTableRecord
100
AcDbLinetypeTableRecord
  2
ACAD_ISO02W100
 70
     0
  3
ISO dash __ __ __ __ __ __ __ __ __ __ __ __ __
 72
    65
 73
     2
 40
15.0
 49
12.0
 74
     0
 49
-3.0
 74
     0
  0
ENDTAB
  0
TABLE
  2
LAYER
  5
2
102
{ACAD_XDICTIONARY
360
78
102
}
330
0
100
AcDbSymbolTable
 70
     2
  0
LAYER
  5
10
102
{ACAD_XDICTIONARY
360
2AF
102
}
330
2
100
AcDbSymbolTableRecord
100
AcDbLayerTableRecord
  2
0
 70
     0
 62
     7
  6
Continuous
370
    -3
390
F
347
264
  0
LAYER
  5
39
330
2
100
AcDbSymbolTableRecord
100
AcDbLayerTableRecord
  2
Defpoints
 70
     0
 62
     7
  6
Continuous
290
     0
370
    -3
390
F
347
264
  0
ENDTAB
  0
TABLE
  2
STYLE
  5
3
330
0
100
AcDbSymbolTable
 70
     2
  0
STYLE
  5
11
330
3
100
AcDbSymbolTableRecord
100
AcDbTextStyleTableRecord
  2
Standard
 70
     0
 40
0.0
 41
1.0
 50
0.0
 71
     0
 42
2.5
  3
txt
  4

  0
STYLE
  5
35
330
3
100
AcDbSymbolTableRecord
100
AcDbTextStyleTableRecord
  2

 70
     1
 40
0.0
 41
1.0
 50
0.0
 71
     0
 42
2.5
  3
ltypeshp.shx
  4

  0
ENDTAB
  0
TABLE
  2
VIEW
  5
6
330
0
100
AcDbSymbolTable
 70
     0
  0
ENDTAB
  0
TABLE
  2
UCS
  5
7
330
0
100
AcDbSymbolTable
 70
     0
  0
ENDTAB
  0
TABLE
  2
APPID
  5
9
330
0
100
AcDbSymbolTable
 70
     2
  0
APPID
  5
12
330
9
100
AcDbSymbolTableRecord
100
AcDbRegAppTableRecord
  2
ACAD
 70
     0
  0
APPID
  5
2A3
330
9
100
AcDbSymbolTableRecord
100
AcDbRegAppTableRecord
  2
ACAD_MLEADERVER
 70
     0
  0
ENDTAB
  0
TABLE
  2
DIMSTYLE
  5
A
330
0
100
AcDbSymbolTable
 70
     2
100
AcDbDimStyleTable
 71
     1
340
29
  0
DIMSTYLE
105
29
330
A
100
AcDbSymbolTableRecord
100
AcDbDimStyleTableRecord
  2
ISO-25
 70
     0
 41
2.5
 42
0.625
 43
3.75
 44
1.25
 73
     0
 74
     0
 77
     1
 78
     8
140
2.5
141
2.5
143
0.03937007874016
147
0.625
170
     1
171
     3
172
     1
271
     2
272
     2
273
     7
274
     3
283
     0
284
     8
340
11
  0
DIMSTYLE
105
77
330
A
100
AcDbSymbolTableRecord
100
AcDbDimStyleTableRecord
  2
Standard
 70
     0
170
     1
273
     7
277
     5
340
11
  0
ENDTAB
  0
TABLE
  2
BLOCK_RECORD
  5
1
330
0
100
AcDbSymbolTable
 70
    16
  0
BLOCK_RECORD
  5
21
102
{ACAD_XDICTIONARY
360
2AA
102
}
330
1
100
AcDbSymbolTableRecord
100
AcDbBlockTableRecord
  2
*Model_Space
340
24
 70
     0
280
     1
281
     0
  0
BLOCK_RECORD
  5
1D
330
1
100
AcDbSymbolTableRecord
100
AcDbBlockTableRecord
  2
*Paper_Space
340
20
 70
     0
280
     1
281
     0
  0
BLOCK_RECORD
  5
25
330
1
100
AcDbSymbolTableRecord
100
AcDbBlockTableRecord
  2
*Paper_Space0
340
28
 70
     0
280
     1
281
     0
  0
BLOCK_RECORD
  5
3A
330
1
100
AcDbSymbolTableRecord
100
AcDbBlockTableRecord
  2
*D1
340
0
 70
     0
280
     1
281
     0
  0
BLOCK_RECORD
  5
53
330
1
100
AcDbSymbolTableRecord
100
AcDbBlockTableRecord
  2
*D2
340
0
 70
     0
280
     1
281
     0
  0
BLOCK_RECORD
  5
98
330
1
100
AcDbSymbolTableRecord
100
AcDbBlockTableRecord
  2
*D3
340
0
 70
     0
280
     1
281
     0
  0
BLOCK_RECORD
  5
BF
330
1
100
AcDbSymbolTableRecord
100
AcDbBlockTableRecord
  2
*D4
340
0
 70
     0
280
     1
281
     0
  0
BLOCK_RECORD
  5
D9
330
1
100
AcDbSymbolTableRecord
100
AcDbBlockTableRecord
  2
*D5
340
0
 70
     0
280
     1
281
     0
  0
BLOCK_RECORD
  5
112
330
1
100
AcDbSymbolTableRecord
100
AcDbBlockTableRecord
  2
*D6
340
0
 70
     0
280
     1
281
     0
  0
BLOCK_RECORD
  5
126
330
1
100
AcDbSymbolTableRecord
100
AcDbBlockTableRecord
  2
*D7
340
0
 70
     0
280
     1
281
     0
  0
BLOCK_RECORD
  5
139
330
1
100
AcDbSymbolTableRecord
100
AcDbBlockTableRecord
  2
*D8
340
0
 70
     0
280
     1
281
     0
  0
BLOCK_RECORD
  5
15A
330
1
100
AcDbSymbolTableRecord
100
AcDbBlockTableRecord
  2
*D9
340
0
 70
     0
280
     1
281
     0
  0
BLOCK_RECORD
  5
17C
330
1
100
AcDbSymbolTableRecord
100
AcDbBlockTableRecord
  2
*D10
340
0
 70
     0
280
     1
281
     0
  0
BLOCK_RECORD
  5
19F
330
1
100
AcDbSymbolTableRecord
100
AcDbBlockTableRecord
  2
*D11
340
0
 70
     0
280
     1
281
     0
  0
BLOCK_RECORD
  5
1B7
330
1
100
AcDbSymbolTableRecord
100
AcDbBlockTableRecord
  2
*D12
340
0
 70
     0
280
     1
281
     0
  0
BLOCK_RECORD
  5
1D0
330
1
100
AcDbSymbolTableRecord
100
AcDbBlockTableRecord
  2
*D13
340
0
 70
     0
280
     1
281
     0
  0
BLOCK_RECORD
  5
216
330
1
100
AcDbSymbolTableRecord
100
AcDbBlockTableRecord
  2
*D14
340
0
 70
     0
280
     1
281
     0
  0
BLOCK_RECORD
  5
22E
330
1
100
AcDbSymbolTableRecord
100
AcDbBlockTableRecord
  2
*D15
340
0
 70
     0
280
     1
281
     0
  0
ENDTAB
  0
ENDSEC
  0
SECTION
  2
BLOCKS
  0
BLOCK
  5
22
330
21
100
AcDbEntity
  8
0
100
AcDbBlockBegin
  2
*Model_Space
 70
     0
 10
0.0
 20
0.0
 30
0.0
  3
*Model_Space
  1

  0
ENDBLK
  5
23
330
21
100
AcDbEntity
  8
0
100
AcDbBlockEnd
  0
BLOCK
  5
1E
330
1D
100
AcDbEntity
 67
     1
  8
0
100
AcDbBlockBegin
  2
*Paper_Space
 70
     0
 10
0.0
 20
0.0
 30
0.0
  3
*Paper_Space
  1

  0
ENDBLK
  5
1F
330
1D
100
AcDbEntity
 67
     1
  8
0
100
AcDbBlockEnd
  0
BLOCK
  5
26
330
25
100
AcDbEntity
 67
     1
  8
0
100
AcDbBlockBegin
  2
*Paper_Space0
 70
     0
 10
0.0
 20
0.0
 30
0.0
  3
*Paper_Space0
  1

  0
ENDBLK
  5
27
330
25
100
AcDbEntity
 67
     1
  8
0
100
AcDbBlockEnd
  0
BLOCK
  5
44
330
3A
100
AcDbEntity
  8
0
100
AcDbBlockBegin
  2
*D1
 70
     1
 10
0.0
 20
0.0
 30
0.0
  3
*D1
  1

  0
LINE
  5
47
330
3A
100
AcDbEntity
  8
0
 62
     0
370
    -2
100
AcDbLine
 10
448.9946294863918
 20
352.9628372153129
 30
0.0
 11
685.9603280629641
 21
352.9628372153128
 31
0.0
  0
LINE
  5
48
330
3A
100
AcDbEntity
  8
0
 62
     0
370
    -2
100
AcDbLine
 10
446.4025124198157
 20
-13.52411881321154
 30
0.0
 11
685.960328062964
 21
-13.52411881321161
 31
0.0
  0
LINE
  5
49
330
3A
100
AcDbEntity
  8
0
 62
     0
370
    -2
100
AcDbLine
 10
684.7103280629641
 20
350.4628372153129
 30
0.0
 11
684.710328062964
 21
-11.02411881321161
 31
0.0
  0
SOLID
  5
4A
330
3A
100
AcDbEntity
  8
0
 62
     0
100
AcDbTrace
 10
684.2936613962972
 20
350.4628372153129
 30
0.0
 11
685.1269947296307
 21
350.4628372153129
 31
0.0
 12
684.7103280629641
 22
352.9628372153128
 32
0.0
 13
684.7103280629641
 23
352.9628372153128
 33
0.0
  0
SOLID
  5
4B
330
3A
100
AcDbEntity
  8
0
 62
     0
100
AcDbTrace
 10
684.2936613962972
 20
-11.02411881321161
 30
0.0
 11
685.1269947296306
 21
-11.02411881321161
 31
0.0
 12
684.710328062964
 22
-13.52411881321161
 32
0.0
 13
684.710328062964
 23
-13.52411881321161
 33
0.0
  0
MTEXT
  5
4C
330
3A
100
AcDbEntity
  8
0
 62
     0
100
AcDbMText
 10
682.835328062964
 20
169.7193592010506
 30
0.0
 40
2.5
 41
0.0
 46
0.0
 71
     5
 72
     1
  1
366.49
 11
0.0000000000000001
 21
1.0
 31
0.0
 73
     1
 44
1.0
  0
POINT
  5
4D
330
3A
100
AcDbEntity
  8
Defpoints
 62
     0
100
AcDbPoint
 10
448.3696294863919
 20
352.9628372153129
 30
0.0
  0
POINT
  5
4E
330
3A
100
AcDbEntity
  8
Defpoints
 62
     0
100
AcDbPoint
 10
445.7775124198156
 20
-13.52411881321154
 30
0.0
  0
POINT
  5
4F
330
3A
100
AcDbEntity
  8
Defpoints
 62
     0
100
AcDbPoint
 10
684.710328062964
 20
-13.52411881321161
 30
0.0
  0
ENDBLK
  5
45
330
3A
100
AcDbEntity
  8
0
100
AcDbBlockEnd
  0
BLOCK
  5
5D
330
53
100
AcDbEntity
  8
0
100
AcDbBlockBegin
  2
*D2
 70
     1
 10
0.0
 20
0.0
 30
0.0
  3
*D2
  1

  0
LINE
  5
60
330
53
100
AcDbEntity
  8
0
 62
     0
370
    -2
100
AcDbLine
 10
225.7775138688246
 20
171.621564529875
 30
0.0
 11
225.7775138688246
 21
383.6584569878496
 31
0.0
  0
LINE
  5
61
330
53
100
AcDbEntity
  8
0
 62
     0
370
    -2
100
AcDbLine
 10
665.777510970807
 20
171.5797872603029
 30
0.0
 11
665.777510970807
 21
383.6584569878496
 31
0.0
  0
LINE
  5
62
330
53
100
AcDbEntity
  8
0
 62
     0
370
    -2
100
AcDbLine
 10
228.2775138688246
 20
382.4084569878497
 30
0.0
 11
663.277510970807
 21
382.4084569878497
 31
0.0
  0
SOLID
  5
63
330
53
100
AcDbEntity
  8
0
 62
     0
100
AcDbTrace
 10
228.2775138688246
 20
382.8251236545164
 30
0.0
 11
228.2775138688246
 21
381.991790321183
 31
0.0
 12
225.7775138688246
 22
382.4084569878497
 32
0.0
 13
225.7775138688246
 23
382.4084569878497
 33
0.0
  0
SOLID
  5
64
330
53
100
AcDbEntity
  8
0
 62
     0
100
AcDbTrace
 10
663.277510970807
 20
382.8251236545164
 30
0.0
 11
663.277510970807
 21
381.991790321183
 31
0.0
 12
665.777510970807
 22
382.4084569878497
 32
0.0
 13
665.777510970807
 23
382.4084569878497
 33
0.0
  0
MTEXT
  5
65
330
53
100
AcDbEntity
  8
0
 62
     0
100
AcDbMText
 10
445.7775124198158
 20
384.2834569878497
 30
0.0
 40
2.5
 41
0.0
 46
0.0
 71
     5
 72
     1
  1
440
 73
     1
 44
1.0
  0
POINT
  5
66
330
53
100
AcDbEntity
  8
Defpoints
 62
     0
100
AcDbPoint
 10
225.7775138688246
 20
170.996564529875
 30
0.0
  0
POINT
  5
67
330
53
100
AcDbEntity
  8
Defpoints
 62
     0
100
AcDbPoint
 10
665.777510970807
 20
170.9547872603029
 30
0.0
  0
POINT
  5
68
330
53
100
AcDbEntity
  8
Defpoints
 62
     0
100
AcDbPoint
 10
665.777510970807
 20
382.4084569878497
 30
0.0
  0
ENDBLK
  5
5E
330
53
100
AcDbEntity
  8
0
100
AcDbBlockEnd
  0
BLOCK
  5
A2
330
98
100
AcDbEntity
  8
0
100
AcDbBlockBegin
  2
*D3
 70
     1
 10
0.0
 20
0.0
 30
0.0
  3
*D3
  1

  0
LINE
  5
AF
330
98
100
AcDbEntity
  8
0
 62
     0
370
    -2
100
AcDbLine
 10
445.1525124198155
 20
-11.02411881321148
 30
0.0
 11
436.5344243118363
 21
-11.02411881321148
 31
0.0
  0
LINE
  5
B0
330
98
100
AcDbEntity
  8
0
 62
     0
370
    -2
100
AcDbLine
 10
524.6392435292963
 20
80.57206053968684
 30
0.0
 11
436.5344243118363
 21
80.57206053968686
 31
0.0
  0
LINE
  5
B1
330
98
100
AcDbEntity
  8
0
 62
     0
370
    -2
100
AcDbLine
 10
437.7844243118365
 20
-8.524118813211485
 30
0.0
 11
437.7844243118365
 21
78.07206053968686
 31
0.0
  0
SOLID
  5
B2
330
98
100
AcDbEntity
  8
0
 62
     0
100
AcDbTrace
 10
437.3677576451698
 20
-8.524118813211485
 30
0.0
 11
438.2010909785032
 21
-8.524118813211485
 31
0.0
 12
437.7844243118365
 22
-11.02411881321148
 32
0.0
 13
437.7844243118365
 23
-11.02411881321148
 33
0.0
  0
SOLID
  5
B3
330
98
100
AcDbEntity
  8
0
 62
     0
100
AcDbTrace
 10
437.3677576451698
 20
78.07206053968686
 30
0.0
 11
438.2010909785032
 21
78.07206053968686
 31
0.0
 12
437.7844243118365
 22
80.57206053968686
 32
0.0
 13
437.7844243118365
 23
80.57206053968686
 33
0.0
  0
MTEXT
  5
B4
330
98
100
AcDbEntity
  8
0
 62
     0
100
AcDbMText
 10
435.9094243118366
 20
34.77397086323776
 30
0.0
 40
2.5
 41
0.0
 46
0.0
 71
     5
 72
     1
  1
91.6
 11
0.0000000000000001
 21
1.0
 31
0.0
 73
     1
 44
1.0
  0
POINT
  5
B5
330
98
100
AcDbEntity
  8
Defpoints
 62
     0
100
AcDbPoint
 10
445.7775124198156
 20
-11.02411881321148
 30
0.0
  0
POINT
  5
B6
330
98
100
AcDbEntity
  8
Defpoints
 62
     0
100
AcDbPoint
 10
525.2642435292963
 20
80.57206053968684
 30
0.0
  0
POINT
  5
B7
330
98
100
AcDbEntity
  8
Defpoints
 62
     0
100
AcDbPoint
 10
437.7844243118365
 20
80.57206053968686
 30
0.0
  0
ENDBLK
  5
A3
330
98
100
AcDbEntity
  8
0
100
AcDbBlockEnd
  0
BLOCK
  5
CA
330
BF
100
AcDbEntity
  8
0
100
AcDbBlockBegin
  2
*D4
 70
     1
 10
0.0
 20
0.0
 30
0.0
  3
*D4
  1

  0
LINE
  5
FA
330
BF
100
AcDbEntity
  8
0
 62
     0
370
    -2
100
AcDbLine
 10
685.0820029516198
 20
171.6006758950889
 30
0.0
 11
685.0820029516198
 21
351.7128372153128
 31
0.0
  0
LINE
  5
FB
330
BF
100
AcDbEntity
  8
0
 62
     0
370
    -2
100
AcDbLine
 10
685.0820029516198
 20
171.6006758950889
 30
0.0
 11
685.0820029516198
 21
351.7128372153128
 31
0.0
  0
LINE
  5
FC
330
BF
100
AcDbEntity
  8
0
 62
     0
370
    -2
100
AcDbLine
 10
682.5820029516201
 20
350.4628372153129
 30
0.0
 11
680.08200295162
 21
350.4628372153129
 31
0.0
  0
LINE
  5
FD
330
BF
100
AcDbEntity
  8
0
 62
     0
370
    -2
100
AcDbLine
 10
687.5820029516201
 20
350.4628372153129
 30
0.0
 11
692.9986696182867
 21
350.4628372153129
 31
0.0
  0
SOLID
  5
FE
330
BF
100
AcDbEntity
  8
0
 62
     0
100
AcDbTrace
 10
682.5820029516201
 20
350.8795038819795
 30
0.0
 11
682.5820029516201
 21
350.0461705486462
 31
0.0
 12
685.0820029516198
 22
350.4628372153129
 32
0.0
 13
685.0820029516198
 23
350.4628372153129
 33
0.0
  0
SOLID
  5
FF
330
BF
100
AcDbEntity
  8
0
 62
     0
100
AcDbTrace
 10
687.5820029516201
 20
350.8795038819795
 30
0.0
 11
687.5820029516201
 21
350.0461705486462
 31
0.0
 12
685.0820029516198
 22
350.4628372153129
 32
0.0
 13
685.0820029516198
 23
350.4628372153129
 33
0.0
  0
MTEXT
  5
100
330
BF
100
AcDbEntity
  8
0
 62
     0
100
AcDbMText
 10
691.5403362849533
 20
352.3378372153128
 30
0.0
 40
2.5
 41
0.0
 46
0.0
 71
     5
 72
     1
  1
0
 73
     1
 44
1.0
  0
POINT
  5
101
330
BF
100
AcDbEntity
  8
Defpoints
 62
     0
100
AcDbPoint
 10
685.0820029516198
 20
170.9756758950889
 30
0.0
  0
POINT
  5
102
330
BF
100
AcDbEntity
  8
Defpoints
 62
     0
100
AcDbPoint
 10
685.0820029516198
 20
170.9756758950889
 30
0.0
  0
POINT
  5
103
330
BF
100
AcDbEntity
  8
Defpoints
 62
     0
100
AcDbPoint
 10
685.0820029516198
 20
350.4628372153129
 30
0.0
  0
ENDBLK
  5
CB
330
BF
100
AcDbEntity
  8
0
100
AcDbBlockEnd
  0
BLOCK
  5
E3
330
D9
100
AcDbEntity
  8
0
100
AcDbBlockBegin
  2
*D5
 70
     1
 10
0.0
 20
0.0
 30
0.0
  3
*D5
  1

  0
LINE
  5
E6
330
D9
100
AcDbEntity
  8
0
 62
     0
370
    -2
100
AcDbLine
 10
446.4025124198157
 20
170.975675895089
 30
0.0
 11
686.33200295162
 21
170.9756758950889
 31
0.0
  0
LINE
  5
E7
330
D9
100
AcDbEntity
  8
0
 62
     0
370
    -2
100
AcDbLine
 10
445.7775124198156
 20
-11.02411881321148
 30
0.0
 11
686.33200295162
 21
-11.02411881321155
 31
0.0
  0
LINE
  5
E8
330
D9
100
AcDbEntity
  8
0
 62
     0
370
    -2
100
AcDbLine
 10
685.0820029516198
 20
168.4756758950889
 30
0.0
 11
685.0820029516198
 21
-8.524118813211554
 31
0.0
  0
SOLID
  5
E9
330
D9
100
AcDbEntity
  8
0
 62
     0
100
AcDbTrace
 10
684.6653362849536
 20
168.4756758950889
 30
0.0
 11
685.4986696182867
 21
168.4756758950889
 31
0.0
 12
685.0820029516198
 22
170.9756758950889
 32
0.0
 13
685.0820029516198
 23
170.9756758950889
 33
0.0
  0
SOLID
  5
EA
330
D9
100
AcDbEntity
  8
0
 62
     0
100
AcDbTrace
 10
684.6653362849536
 20
-8.524118813211554
 30
0.0
 11
685.4986696182867
 21
-8.524118813211554
 31
0.0
 12
685.0820029516198
 22
-11.02411881321155
 32
0.0
 13
685.0820029516198
 23
-11.02411881321155
 33
0.0
  0
MTEXT
  5
EB
330
D9
100
AcDbEntity
  8
0
 62
     0
100
AcDbMText
 10
683.20700295162
 20
79.97577854093879
 30
0.0
 40
2.5
 41
0.0
 46
0.0
 71
     5
 72
     1
  1
182
 11
0.0000000000000001
 21
1.0
 31
0.0
 73
     1
 44
1.0
  0
POINT
  5
EC
330
D9
100
AcDbEntity
  8
Defpoints
 62
     0
100
AcDbPoint
 10
445.7775124198158
 20
170.975675895089
 30
0.0
  0
POINT
  5
ED
330
D9
100
AcDbEntity
  8
Defpoints
 62
     0
100
AcDbPoint
 10
445.1525124198155
 20
-11.02411881321148
 30
0.0
  0
POINT
  5
EE
330
D9
100
AcDbEntity
  8
Defpoints
 62
     0
100
AcDbPoint
 10
685.0820029516198
 20
-11.02411881321155
 30
0.0
  0
ENDBLK
  5
E4
330
D9
100
AcDbEntity
  8
0
100
AcDbBlockEnd
  0
BLOCK
  5
11C
330
112
100
AcDbEntity
  8
0
100
AcDbBlockBegin
  2
*D6
 70
     1
 10
0.0
 20
0.0
 30
0.0
  3
*D6
  1

  0
LINE
  5
113
330
112
100
AcDbEntity
  8
0
 62
     0
370
    -2
100
AcDbLine
 10
685.3353280629638
 20
352.9628372153128
 30
0.0
 11
700.3141777994502
 21
352.9628372153128
 31
0.0
  0
LINE
  5
114
330
112
100
AcDbEntity
  8
0
 62
     0
370
    -2
100
AcDbLine
 10
685.7519947296306
 20
-11.02411881321161
 30
0.0
 11
700.31417779945
 21
-11.02411881321161
 31
0.0
  0
LINE
  5
115
330
112
100
AcDbEntity
  8
0
 62
     0
370
    -2
100
AcDbLine
 10
699.0641777994502
 20
350.4628372153129
 30
0.0
 11
699.06417779945
 21
-8.524118813211613
 31
0.0
  0
SOLID
  5
116
330
112
100
AcDbEntity
  8
0
 62
     0
100
AcDbTrace
 10
698.6475111327836
 20
350.4628372153129
 30
0.0
 11
699.480844466117
 21
350.4628372153129
 31
0.0
 12
699.0641777994502
 22
352.9628372153128
 32
0.0
 13
699.0641777994502
 23
352.9628372153128
 33
0.0
  0
SOLID
  5
117
330
112
100
AcDbEntity
  8
0
 62
     0
100
AcDbTrace
 10
698.6475111327835
 20
-8.524118813211613
 30
0.0
 11
699.4808444661167
 21
-8.524118813211613
 31
0.0
 12
699.06417779945
 22
-11.02411881321161
 32
0.0
 13
699.06417779945
 23
-11.02411881321161
 33
0.0
  0
MTEXT
  5
118
330
112
100
AcDbEntity
  8
0
 62
     0
100
AcDbMText
 10
697.18917779945
 20
170.9693592010506
 30
0.0
 40
2.5
 41
0.0
 46
0.0
 71
     5
 72
     1
  1
363.99
 11
0.0000000000000001
 21
1.0
 31
0.0
 73
     1
 44
1.0
  0
POINT
  5
119
330
112
100
AcDbEntity
  8
Defpoints
 62
     0
100
AcDbPoint
 10
684.7103280629641
 20
352.9628372153128
 30
0.0
  0
POINT
  5
11A
330
112
100
AcDbEntity
  8
Defpoints
 62
     0
100
AcDbPoint
 10
685.1269947296306
 20
-11.02411881321161
 30
0.0
  0
POINT
  5
11B
330
112
100
AcDbEntity
  8
Defpoints
 62
     0
100
AcDbPoint
 10
699.06417779945
 20
-11.02411881321161
 30
0.0
  0
ENDBLK
  5
11D
330
112
100
AcDbEntity
  8
0
100
AcDbBlockEnd
  0
BLOCK
  5
130
330
126
100
AcDbEntity
  8
0
100
AcDbBlockBegin
  2
*D7
 70
     1
 10
0.0
 20
0.0
 30
0.0
  3
*D7
  1

  0
LINE
  5
127
330
126
100
AcDbEntity
  8
0
 62
     0
370
    -2
100
AcDbLine
 10
225.7775138688246
 20
383.0334569878496
 30
0.0
 11
225.7775138688246
 21
389.9738466976907
 31
0.0
  0
LINE
  5
128
330
126
100
AcDbEntity
  8
0
 62
     0
370
    -2
100
AcDbLine
 10
665.777510970807
 20
383.0334569878496
 30
0.0
 11
665.777510970807
 21
389.9738466976907
 31
0.0
  0
LINE
  5
129
330
126
100
AcDbEntity
  8
0
 62
     0
370
    -2
100
AcDbLine
 10
228.2775138688246
 20
388.7238466976906
 30
0.0
 11
663.277510970807
 21
388.7238466976906
 31
0.0
  0
SOLID
  5
12A
330
126
100
AcDbEntity
  8
0
 62
     0
100
AcDbTrace
 10
228.2775138688246
 20
389.1405133643573
 30
0.0
 11
228.2775138688246
 21
388.307180031024
 31
0.0
 12
225.7775138688246
 22
388.7238466976906
 32
0.0
 13
225.7775138688246
 23
388.7238466976906
 33
0.0
  0
SOLID
  5
12B
330
126
100
AcDbEntity
  8
0
 62
     0
100
AcDbTrace
 10
663.277510970807
 20
389.1405133643573
 30
0.0
 11
663.277510970807
 21
388.307180031024
 31
0.0
 12
665.777510970807
 22
388.7238466976906
 32
0.0
 13
665.777510970807
 23
388.7238466976906
 33
0.0
  0
MTEXT
  5
12C
330
126
100
AcDbEntity
  8
0
 62
     0
100
AcDbMText
 10
445.7775124198158
 20
391.2536086024526
 30
0.0
 40
2.5
 41
0.0
 46
0.0
 71
     5
 72
     1
  1
440 [17 3/8]
 73
     1
 44
1.0
  0
POINT
  5
12D
330
126
100
AcDbEntity
  8
Defpoints
 62
     0
100
AcDbPoint
 10
225.7775138688246
 20
382.4084569878497
 30
0.0
  0
POINT
  5
12E
330
126
100
AcDbEntity
  8
Defpoints
 62
     0
100
AcDbPoint
 10
665.777510970807
 20
382.4084569878497
 30
0.0
  0
POINT
  5
12F
330
126
100
AcDbEntity
  8
Defpoints
 62
     0
100
AcDbPoint
 10
665.777510970807
 20
388.7238466976906
 30
0.0
  0
ENDBLK
  5
131
330
126
100
AcDbEntity
  8
0
100
AcDbBlockEnd
  0
BLOCK
  5
143
330
139
100
AcDbEntity
  8
0
100
AcDbBlockBegin
  2
*D8
 70
     1
 10
0.0
 20
0.0
 30
0.0
  3
*D8
  1

  0
LINE
  5
13A
330
139
100
AcDbEntity
  8
0
 62
     0
370
    -2
100
AcDbLine
 10
699.6891777994502
 20
352.9628372153128
 30
0.0
 11
710.9575694584215
 21
352.9628372153128
 31
0.0
  0
LINE
  5
13B
330
139
100
AcDbEntity
  8
0
 62
     0
370
    -2
100
AcDbLine
 10
699.2725111327835
 20
-11.02411881321161
 30
0.0
 11
710.9575694584212
 21
-11.02411881321161
 31
0.0
  0
LINE
  5
13C
330
139
100
AcDbEntity
  8
0
 62
     0
370
    -2
100
AcDbLine
 10
709.7075694584215
 20
350.4628372153129
 30
0.0
 11
709.7075694584212
 21
-8.524118813211616
 31
0.0
  0
SOLID
  5
13D
330
139
100
AcDbEntity
  8
0
 62
     0
100
AcDbTrace
 10
709.2909027917547
 20
350.4628372153129
 30
0.0
 11
710.1242361250881
 21
350.4628372153129
 31
0.0
 12
709.7075694584215
 22
352.9628372153128
 32
0.0
 13
709.7075694584215
 23
352.9628372153128
 33
0.0
  0
SOLID
  5
13E
330
139
100
AcDbEntity
  8
0
 62
     0
100
AcDbTrace
 10
709.2909027917547
 20
-8.524118813211616
 30
0.0
 11
710.124236125088
 21
-8.524118813211616
 31
0.0
 12
709.7075694584212
 22
-11.02411881321161
 32
0.0
 13
709.7075694584212
 23
-11.02411881321161
 33
0.0
  0
MTEXT
  5
13F
330
139
100
AcDbEntity
  8
0
 62
     0
100
AcDbMText
 10
707.1778075536592
 20
170.9693592010506
 30
0.0
 40
2.5
 41
0.0
 46
0.0
 71
     5
 72
     1
  1
363.99 [14 3/8]
 11
0.0000000000000001
 21
1.0
 31
0.0
 73
     1
 44
1.0
  0
POINT
  5
140
330
139
100
AcDbEntity
  8
Defpoints
 62
     0
100
AcDbPoint
 10
699.0641777994502
 20
352.9628372153128
 30
0.0
  0
POINT
  5
141
330
139
100
AcDbEntity
  8
Defpoints
 62
     0
100
AcDbPoint
 10
698.6475111327835
 20
-11.02411881321161
 30
0.0
  0
POINT
  5
142
330
139
100
AcDbEntity
  8
Defpoints
 62
     0
100
AcDbPoint
 10
709.7075694584212
 20
-11.02411881321161
 30
0.0
  0
ENDBLK
  5
144
330
139
100
AcDbEntity
  8
0
100
AcDbBlockEnd
  0
BLOCK
  5
164
330
15A
100
AcDbEntity
  8
0
100
AcDbBlockBegin
  2
*D9
 70
     1
 10
0.0
 20
0.0
 30
0.0
  3
*D9
  1

  0
LINE
  5
167
330
15A
100
AcDbEntity
  8
0
 62
     0
370
    -2
100
AcDbLine
 10
437.1594243118364
 20
78.07206053968686
 30
0.0
 11
436.5344243118363
 21
78.07206053968686
 31
0.0
  0
LINE
  5
168
330
15A
100
AcDbEntity
  8
0
 62
     0
370
    -2
100
AcDbLine
 10
437.1594243118364
 20
-0.3994551184276529
 30
0.0
 11
436.5344243118363
 21
-0.3994551184276528
 31
0.0
  0
LINE
  5
169
330
15A
100
AcDbEntity
  8
0
 62
     0
370
    -2
100
AcDbLine
 10
437.7844243118365
 20
75.57206053968686
 30
0.0
 11
437.7844243118365
 21
2.100544881572345
 31
0.0
  0
SOLID
  5
16A
330
15A
100
AcDbEntity
  8
0
 62
     0
100
AcDbTrace
 10
437.3677576451695
 20
75.57206053968686
 30
0.0
 11
438.201090978503
 21
75.57206053968686
 31
0.0
 12
437.7844243118365
 22
78.07206053968686
 32
0.0
 13
437.7844243118365
 23
78.07206053968686
 33
0.0
  0
SOLID
  5
16B
330
15A
100
AcDbEntity
  8
0
 62
     0
100
AcDbTrace
 10
437.3677576451695
 20
2.100544881572345
 30
0.0
 11
438.201090978503
 21
2.100544881572345
 31
0.0
 12
437.7844243118365
 22
-0.3994551184276531
 32
0.0
 13
437.7844243118365
 23
-0.3994551184276531
 33
0.0
  0
MTEXT
  5
16C
330
15A
100
AcDbEntity
  8
0
 62
     0
100
AcDbMText
 10
435.2546624070745
 20
38.83630271062968
 30
0.0
 40
2.5
 41
0.0
 46
0.0
 71
     5
 72
     1
  1
78.47 [3 1/8]
 11
0.0000000000000001
 21
1.0
 31
0.0
 73
     1
 44
1.0
  0
POINT
  5
16D
330
15A
100
AcDbEntity
  8
Defpoints
 62
     0
100
AcDbPoint
 10
437.7844243118365
 20
78.07206053968686
 30
0.0
  0
POINT
  5
16E
330
15A
100
AcDbEntity
  8
Defpoints
 62
     0
100
AcDbPoint
 10
437.7844243118365
 20
-0.3994551184276531
 30
0.0
  0
POINT
  5
16F
330
15A
100
AcDbEntity
  8
Defpoints
 62
     0
100
AcDbPoint
 10
437.7844243118365
 20
-0.3994551184276531
 30
0.0
  0
ENDBLK
  5
165
330
15A
100
AcDbEntity
  8
0
100
AcDbBlockEnd
  0
BLOCK
  5
186
330
17C
100
AcDbEntity
  8
0
100
AcDbBlockBegin
  2
*D10
 70
     1
 10
0.0
 20
0.0
 30
0.0
  3
*D10
  1

  0
LINE
  5
189
330
17C
100
AcDbEntity
  8
0
 62
     0
370
    -2
100
AcDbLine
 10
443.6228637847788
 20
342.4605797461792
 30
0.0
 11
686.2752998288835
 21
342.4605797461791
 31
0.0
  0
LINE
  5
18A
330
17C
100
AcDbEntity
  8
0
 62
     0
370
    -2
100
AcDbLine
 10
443.4986238060146
 20
-0.5275292529229746
 30
0.0
 11
686.2752998288832
 21
-0.5275292529230434
 31
0.0
  0
LINE
  5
18B
330
17C
100
AcDbEntity
  8
0
 62
     0
370
    -2
100
AcDbLine
 10
685.0252998288834
 20
339.9605797461791
 30
0.0
 11
685.0252998288834
 21
1.972470747076956
 31
0.0
  0
SOLID
  5
18C
330
17C
100
AcDbEntity
  8
0
 62
     0
100
AcDbTrace
 10
684.6086331622167
 20
339.9605797461791
 30
0.0
 11
685.4419664955501
 21
339.9605797461791
 31
0.0
 12
685.0252998288834
 22
342.4605797461791
 32
0.0
 13
685.0252998288834
 23
342.4605797461791
 33
0.0
  0
SOLID
  5
18D
330
17C
100
AcDbEntity
  8
0
 62
     0
100
AcDbTrace
 10
684.6086331622167
 20
1.972470747076956
 30
0.0
 11
685.44196649555
 21
1.972470747076956
 31
0.0
 12
685.0252998288834
 22
-0.5275292529230431
 32
0.0
 13
685.0252998288834
 23
-0.5275292529230431
 33
0.0
  0
MTEXT
  5
18E
330
17C
100
AcDbEntity
  8
0
 62
     0
100
AcDbMText
 10
682.4955379241214
 20
170.9665252466282
 30
0.0
 40
2.5
 41
0.0
 46
0.0
 71
     5
 72
     1
  1
342.99 [13 1/2]
 11
0.0000000000000001
 21
1.0
 31
0.0
 73
     1
 44
1.0
  0
POINT
  5
18F
330
17C
100
AcDbEntity
  8
Defpoints
 62
     0
100
AcDbPoint
 10
442.9978637847789
 20
342.4605797461792
 30
0.0
  0
POINT
  5
190
330
17C
100
AcDbEntity
  8
Defpoints
 62
     0
100
AcDbPoint
 10
442.8736238060146
 20
-0.5275292529229745
 30
0.0
  0
POINT
  5
191
330
17C
100
AcDbEntity
  8
Defpoints
 62
     0
100
AcDbPoint
 10
685.0252998288834
 20
-0.5275292529230431
 30
0.0
  0
ENDBLK
  5
187
330
17C
100
AcDbEntity
  8
0
100
AcDbBlockEnd
  0
BLOCK
  5
1A9
330
19F
100
AcDbEntity
  8
0
100
AcDbBlockBegin
  2
*D11
 70
     1
 10
0.0
 20
0.0
 30
0.0
  3
*D11
  1

  0
LINE
  5
1AC
330
19F
100
AcDbEntity
  8
0
 62
     0
370
    -2
100
AcDbLine
 10
445.7775124198158
 20
171.600675895089
 30
0.0
 11
445.7775124198158
 21
365.2248544792418
 31
0.0
  0
LINE
  5
1AD
330
19F
100
AcDbEntity
  8
0
 62
     0
370
    -2
100
AcDbLine
 10
236.2777967068687
 20
171.600675895089
 30
0.0
 11
236.2777967068687
 21
365.2248544792418
 31
0.0
  0
LINE
  5
1AE
330
19F
100
AcDbEntity
  8
0
 62
     0
370
    -2
100
AcDbLine
 10
443.2775124198157
 20
363.9748544792417
 30
0.0
 11
238.7777967068687
 21
363.9748544792417
 31
0.0
  0
SOLID
  5
1AF
330
19F
100
AcDbEntity
  8
0
 62
     0
100
AcDbTrace
 10
443.2775124198157
 20
364.3915211459084
 30
0.0
 11
443.2775124198157
 21
363.558187812575
 31
0.0
 12
445.7775124198158
 22
363.9748544792417
 32
0.0
 13
445.7775124198158
 23
363.9748544792417
 33
0.0
  0
SOLID
  5
1B0
330
19F
100
AcDbEntity
  8
0
 62
     0
100
AcDbTrace
 10
238.7777967068687
 20
364.3915211459084
 30
0.0
 11
238.7777967068687
 21
363.558187812575
 31
0.0
 12
236.2777967068687
 22
363.9748544792417
 32
0.0
 13
236.2777967068687
 23
363.9748544792417
 33
0.0
  0
MTEXT
  5
1B1
330
19F
100
AcDbEntity
  8
0
 62
     0
100
AcDbMText
 10
341.0276545633422
 20
366.5046163840036
 30
0.0
 40
2.5
 41
0.0
 46
0.0
 71
     5
 72
     1
  1
209.5 [8 1/4]
 73
     1
 44
1.0
  0
POINT
  5
1B2
330
19F
100
AcDbEntity
  8
Defpoints
 62
     0
100
AcDbPoint
 10
445.7775124198158
 20
170.975675895089
 30
0.0
  0
POINT
  5
1B3
330
19F
100
AcDbEntity
  8
Defpoints
 62
     0
100
AcDbPoint
 10
236.2777967068687
 20
170.975675895089
 30
0.0
  0
POINT
  5
1B4
330
19F
100
AcDbEntity
  8
Defpoints
 62
     0
100
AcDbPoint
 10
236.2777967068687
 20
363.9748544792417
 30
0.0
  0
ENDBLK
  5
1AA
330
19F
100
AcDbEntity
  8
0
100
AcDbBlockEnd
  0
BLOCK
  5
1C1
330
1B7
100
AcDbEntity
  8
0
100
AcDbBlockBegin
  2
*D12
 70
     1
 10
0.0
 20
0.0
 30
0.0
  3
*D12
  1

  0
LINE
  5
1B8
330
1B7
100
AcDbEntity
  8
0
 62
     0
370
    -2
100
AcDbLine
 10
445.7775124198158
 20
172.225675895089
 30
0.0
 11
445.7775124198158
 21
365.2248544792418
 31
0.0
  0
LINE
  5
1B9
330
1B7
100
AcDbEntity
  8
0
 62
     0
370
    -2
100
AcDbLine
 10
655.2758369420487
 20
172.225675895089
 30
0.0
 11
655.2758369420487
 21
365.2248544792418
 31
0.0
  0
LINE
  5
1BA
330
1B7
100
AcDbEntity
  8
0
 62
     0
370
    -2
100
AcDbLine
 10
448.2775124198158
 20
363.9748544792417
 30
0.0
 11
652.7758369420487
 21
363.9748544792417
 31
0.0
  0
SOLID
  5
1BB
330
1B7
100
AcDbEntity
  8
0
 62
     0
100
AcDbTrace
 10
448.2775124198158
 20
364.3915211459084
 30
0.0
 11
448.2775124198158
 21
363.558187812575
 31
0.0
 12
445.7775124198158
 22
363.9748544792417
 32
0.0
 13
445.7775124198158
 23
363.9748544792417
 33
0.0
  0
SOLID
  5
1BC
330
1B7
100
AcDbEntity
  8
0
 62
     0
100
AcDbTrace
 10
652.7758369420487
 20
364.3915211459084
 30
0.0
 11
652.7758369420487
 21
363.558187812575
 31
0.0
 12
655.2758369420487
 22
363.9748544792417
 32
0.0
 13
655.2758369420487
 23
363.9748544792417
 33
0.0
  0
MTEXT
  5
1BD
330
1B7
100
AcDbEntity
  8
0
 62
     0
100
AcDbMText
 10
550.5266746809321
 20
366.5046163840036
 30
0.0
 40
2.5
 41
0.0
 46
0.0
 71
     5
 72
     1
  1
209.5 [8 1/4]
 73
     1
 44
1.0
  0
POINT
  5
1BE
330
1B7
100
AcDbEntity
  8
Defpoints
 62
     0
100
AcDbPoint
 10
445.7775124198158
 20
171.600675895089
 30
0.0
  0
POINT
  5
1BF
330
1B7
100
AcDbEntity
  8
Defpoints
 62
     0
100
AcDbPoint
 10
655.2758369420487
 20
171.600675895089
 30
0.0
  0
POINT
  5
1C0
330
1B7
100
AcDbEntity
  8
Defpoints
 62
     0
100
AcDbPoint
 10
655.2758369420487
 20
363.9748544792417
 30
0.0
  0
ENDBLK
  5
1C2
330
1B7
100
AcDbEntity
  8
0
100
AcDbBlockEnd
  0
BLOCK
  5
1DA
330
1D0
100
AcDbEntity
  8
0
100
AcDbBlockBegin
  2
*D13
 70
     1
 10
0.0
 20
0.0
 30
0.0
  3
*D13
  1

  0
LINE
  5
1D1
330
1D0
100
AcDbEntity
  8
0
 62
     0
370
    -2
100
AcDbLine
 10
236.2777967068687
 20
364.5998544792417
 30
0.0
 11
236.2777967068687
 21
365.6415211459084
 31
0.0
  0
LINE
  5
1D2
330
1D0
100
AcDbEntity
  8
0
 62
     0
370
    -2
100
AcDbLine
 10
655.2758369420487
 20
364.5998544792417
 30
0.0
 11
655.2758369420487
 21
365.6415211459084
 31
0.0
  0
LINE
  5
1D3
330
1D0
100
AcDbEntity
  8
0
 62
     0
370
    -2
100
AcDbLine
 10
238.7777967068687
 20
364.3915211459084
 30
0.0
 11
652.7758369420487
 21
364.3915211459084
 31
0.0
  0
SOLID
  5
1D4
330
1D0
100
AcDbEntity
  8
0
 62
     0
100
AcDbTrace
 10
238.7777967068687
 20
364.8081878125752
 30
0.0
 11
238.7777967068687
 21
363.9748544792417
 31
0.0
 12
236.2777967068687
 22
364.3915211459084
 32
0.0
 13
236.2777967068687
 23
364.3915211459084
 33
0.0
  0
SOLID
  5
1D5
330
1D0
100
AcDbEntity
  8
0
 62
     0
100
AcDbTrace
 10
652.7758369420487
 20
364.8081878125752
 30
0.0
 11
652.7758369420487
 21
363.9748544792417
 31
0.0
 12
655.2758369420487
 22
364.3915211459084
 32
0.0
 13
655.2758369420487
 23
364.3915211459084
 33
0.0
  0
MTEXT
  5
1D6
330
1D0
100
AcDbEntity
  8
0
 62
     0
100
AcDbMText
 10
445.7768168244585
 20
366.9212830506703
 30
0.0
 40
2.5
 41
0.0
 46
0.0
 71
     5
 72
     1
  1
419 [16 1/2]
 73
     1
 44
1.0
  0
POINT
  5
1D7
330
1D0
100
AcDbEntity
  8
Defpoints
 62
     0
100
AcDbPoint
 10
236.2777967068687
 20
363.9748544792417
 30
0.0
  0
POINT
  5
1D8
330
1D0
100
AcDbEntity
  8
Defpoints
 62
     0
100
AcDbPoint
 10
655.2758369420487
 20
363.9748544792417
 30
0.0
  0
POINT
  5
1D9
330
1D0
100
AcDbEntity
  8
Defpoints
 62
     0
100
AcDbPoint
 10
655.2758369420487
 20
364.3915211459084
 30
0.0
  0
ENDBLK
  5
1DB
330
1D0
100
AcDbEntity
  8
0
100
AcDbBlockEnd
  0
BLOCK
  5
220
330
216
100
AcDbEntity
  8
0
100
AcDbBlockBegin
  2
*D14
 70
     1
 10
0.0
 20
0.0
 30
0.0
  3
*D14
  1

  0
LINE
  5
223
330
216
100
AcDbEntity
  8
0
 62
     0
370
    -2
100
AcDbLine
 10
259.8422574418103
 20
184.0360226054638
 30
0.0
 11
259.8422574418103
 21
199.9245192615037
 31
0.0
  0
LINE
  5
224
330
216
100
AcDbEntity
  8
0
 62
     0
370
    -2
100
AcDbLine
 10
699.8422574418103
 20
184.0360226054638
 30
0.0
 11
699.8422574418103
 21
199.9245192615037
 31
0.0
  0
LINE
  5
225
330
216
100
AcDbEntity
  8
0
 62
     0
370
    -2
100
AcDbLine
 10
262.3422574418103
 20
198.6745192615037
 30
0.0
 11
697.3422574418102
 21
198.6745192615037
 31
0.0
  0
SOLID
  5
226
330
216
100
AcDbEntity
  8
0
 62
     0
100
AcDbTrace
 10
262.3422574418103
 20
199.0911859281704
 30
0.0
 11
262.3422574418103
 21
198.2578525948371
 31
0.0
 12
259.8422574418103
 22
198.6745192615037
 32
0.0
 13
259.8422574418103
 23
198.6745192615037
 33
0.0
  0
SOLID
  5
227
330
216
100
AcDbEntity
  8
0
 62
     0
100
AcDbTrace
 10
697.3422574418102
 20
199.0911859281704
 30
0.0
 11
697.3422574418102
 21
198.2578525948371
 31
0.0
 12
699.8422574418103
 22
198.6745192615037
 32
0.0
 13
699.8422574418103
 23
198.6745192615037
 33
0.0
  0
MTEXT
  5
228
330
216
100
AcDbEntity
  8
0
 62
     0
100
AcDbMText
 10
479.8422574418101
 20
200.5495192615037
 30
0.0
 40
2.5
 41
0.0
 46
0.0
 71
     5
 72
     1
  1
440 [17 3/8]
 73
     1
 44
1.0
  0
POINT
  5
229
330
216
100
AcDbEntity
  8
Defpoints
 62
     0
100
AcDbPoint
 10
259.8422574418103
 20
183.4110226054638
 30
0.0
  0
POINT
  5
22A
330
216
100
AcDbEntity
  8
Defpoints
 62
     0
100
AcDbPoint
 10
699.8422574418103
 20
183.4110226054638
 30
0.0
  0
POINT
  5
22B
330
216
100
AcDbEntity
  8
Defpoints
 62
     0
100
AcDbPoint
 10
699.8422574418103
 20
198.6745192615037
 30
0.0
  0
ENDBLK
  5
221
330
216
100
AcDbEntity
  8
0
100
AcDbBlockEnd
  0
BLOCK
  5
238
330
22E
100
AcDbEntity
  8
0
100
AcDbBlockBegin
  2
*D15
 70
     1
 10
0.0
 20
0.0
 30
0.0
  3
*D15
  1

  0
LINE
  5
23B
330
22E
100
AcDbEntity
  8
0
 62
     0
370
    -2
100
AcDbLine
 10
700.4672574418102
 20
183.4110226054638
 30
0.0
 11
723.7839440954428
 21
183.4110226054638
 31
0.0
  0
LINE
  5
23C
330
22E
100
AcDbEntity
  8
0
 62
     0
370
    -2
100
AcDbLine
 10
701.1837915291582
 20
-138.5881801558188
 30
0.0
 11
723.7839440954428
 21
-138.5881801558189
 31
0.0
  0
LINE
  5
23D
330
22E
100
AcDbEntity
  8
0
 62
     0
370
    -2
100
AcDbLine
 10
722.5339440954428
 20
180.9110226054638
 30
0.0
 11
722.5339440954428
 21
-136.0881801558189
 31
0.0
  0
SOLID
  5
23E
330
22E
100
AcDbEntity
  8
0
 62
     0
100
AcDbTrace
 10
722.1172774287762
 20
180.9110226054638
 30
0.0
 11
722.9506107621094
 21
180.9110226054638
 31
0.0
 12
722.5339440954428
 22
183.4110226054638
 32
0.0
 13
722.5339440954428
 23
183.4110226054638
 33
0.0
  0
SOLID
  5
23F
330
22E
100
AcDbEntity
  8
0
 62
     0
100
AcDbTrace
 10
722.1172774287762
 20
-136.0881801558189
 30
0.0
 11
722.9506107621094
 21
-136.0881801558189
 31
0.0
 12
722.5339440954428
 22
-138.5881801558189
 32
0.0
 13
722.5339440954428
 23
-138.5881801558189
 33
0.0
  0
MTEXT
  5
240
330
22E
100
AcDbEntity
  8
0
 62
     0
100
AcDbMText
 10
720.6589440954428
 20
22.41142122482258
 30
0.0
 40
2.5
 41
0.0
 46
0.0
 71
     5
 72
     1
  1
322 [12 5/8]
 11
0.0000000000000001
 21
1.0
 31
0.0
 73
     1
 44
1.0
  0
POINT
  5
241
330
22E
100
AcDbEntity
  8
Defpoints
 62
     0
100
AcDbPoint
 10
699.8422574418103
 20
183.4110226054638
 30
0.0
  0
POINT
  5
242
330
22E
100
AcDbEntity
  8
Defpoints
 62
     0
100
AcDbPoint
 10
700.5587915291583
 20
-138.5881801558188
 30
0.0
  0
POINT
  5
243
330
22E
100
AcDbEntity
  8
Defpoints
 62
     0
100
AcDbPoint
 10
722.5339440954428
 20
-138.5881801558189
 30
0.0
  0
ENDBLK
  5
239
330
22E
100
AcDbEntity
  8
0
100
AcDbBlockEnd
  0
ENDSEC
  0
SECTION
  2
ENTITIES
  0
SOLID
  5
88
330
21
100
AcDbEntity
  8
0
100
AcDbTrace
 10
332.1258978768563
 20
-19.47538854351828
 30
0.0
 11
332.1858978768563
 21
-19.47538854351828
 31
0.0
 12
332.1558978768563
 22
-19.65538854351827
 32
0.0
 13
332.1558978768563
 23
-19.65538854351827
 33
0.0
  0
LINE
  5
89
330
21
100
AcDbEntity
  8
0
100
AcDbLine
 10
332.1558978768563
 20
-19.47538854351828
 30
0.0
 11
332.1558978768563
 21
-18.02681347123398
 31
0.0
  0
LINE
  5
8A
330
21
100
AcDbEntity
  8
0
100
AcDbLine
 10
332.1558978768563
 20
-15.91823839894968
 30
0.0
 11
332.1558978768563
 21
-18.27988094978498
 31
0.0
  0
LINE
  5
8B
330
21
100
AcDbEntity
  8
0
100
AcDbLine
 10
332.0933978768562
 20
-19.65538854351827
 30
0.0
 11
331.9758978768563
 21
-19.65538854351827
 31
0.0
  0
MTEXT
  5
8C
330
21
100
AcDbEntity
  8
0
 62
     1
100
AcDbMText
 10
328.7146692889826
 20
-8.254876769417478
 30
0.0
 40
5.0
 41
316.5774964455378
 46
0.0
 71
     1
 72
     5
  1
Use full template for a flush mount cut\P(Sink is flushed to the edge of counter top opening)
 73
     1
 44
1.0
  0
MTEXT
  5
8D
330
21
100
AcDbEntity
  8
0
 62
     1
100
AcDbMText
 10
329.2446859725683
 20
-31.28836405679868
 30
0.0
 40
5.0
 41
316.1135419359495
 46
0.0
 71
     1
 72
     5
  1
{\fArial|b1|i0|c0|p34;Use outside line for reveal mount cut:\fArial|b0|i0|c0|p34;\PSink rim is 1/4" revealed from the coutnertop opening.}
 73
     1
 44
1.0
  0
LINE
  5
BA
330
21
100
AcDbEntity
  8
0
 62
     1
370
    30
100
AcDbLine
 10
437.3677576451698
 20
-141.3645770293684
 30
0.0
 11
437.3677576451698
 21
-62.89306137125392
 31
0.0
  0
LINE
  5
172
330
21
100
AcDbEntity
  8
0
100
AcDbLine
 10
436.7427576451698
 20
-141.3645770293684
 30
0.0
 11
436.1177576451696
 21
-141.3645770293684
 31
0.0
  0
LINE
  5
173
330
21
100
AcDbEntity
  8
0
 62
     1
100
AcDbLine
 10
437.3677576451698
 20
-65.39306137125392
 30
0.0
 11
437.3677576451698
 21
-138.8645770293684
 31
0.0
  0
SOLID
  5
175
330
21
100
AcDbEntity
  8
0
100
AcDbTrace
 10
436.9510909785028
 20
-138.8645770293684
 30
0.0
 11
437.7844243118365
 21
-138.8645770293684
 31
0.0
 12
437.3677576451698
 22
-141.3645770293684
 32
0.0
 13
437.3677576451698
 23
-141.3645770293684
 33
0.0
  0
MTEXT
  5
176
330
21
100
AcDbEntity
  8
0
 62
     1
100
AcDbMText
 10
434.837995740408
 20
-102.1288192003111
 30
0.0
 40
2.5
 41
0.0
 46
0.0
 71
     5
 72
     1
  1
78.47 [3 1/8]
 11
0.0000000000000001
 21
1.0
 31
0.0
 73
     1
 44
1.0
  0
LINE
  5
19B
330
21
100
AcDbEntity
  8
0
100
AcDbLine
 10
445.7775124198158
 20
170.975675895089
 30
0.0
 11
445.7775124198158
 21
170.975675895089
 31
0.0
  0
LINE
  5
19C
330
21
100
AcDbEntity
  8
0
100
AcDbLine
 10
445.7775124198158
 20
170.975675895089
 30
0.0
 11
445.7775124198158
 21
170.975675895089
 31
0.0
  0
LINE
  5
19D
330
21
100
AcDbEntity
  8
0
100
AcDbLine
 10
445.7775124198158
 20
170.975675895089
 30
0.0
 11
445.7775124198158
 21
170.975675895089
 31
0.0
  0
MTEXT
  5
1FD
330
21
100
AcDbEntity
  8
0
 62
     1
100
AcDbMText
 10
329.054716438411
 20
-52.07848228078528
 30
0.0
 40
8.0
 41
305.7185185185185
 46
0.0
 71
     1
 72
     5
  1
Use this virtual line for cutting.
 73
     1
 44
1.0
  0
LINE
  5
207
330
21
100
AcDbEntity
  8
0
  6
ACAD_ISO02W100
 62
     1
100
AcDbLine
 10
274.8756369142403
 20
183.4110226054638
 30
0.0
 11
684.875599303024
 21
183.4110226054638
 31
0.0
  0
LINE
  5
208
330
21
100
AcDbEntity
  8
0
  6
ACAD_ISO02W100
 62
     1
100
AcDbLine
 10
699.8755621645744
 20
168.4444015225763
 30
0.0
 11
700.5253734214824
 21
-123.5706056685731
 31
0.0
  0
LINE
  5
209
330
21
100
AcDbEntity
  8
0
  6
ACAD_ISO02W100
 62
     1
100
AcDbLine
 10
685.5411881673663
 20
-138.6039762879201
 30
0.0
 11
275.5414721682218
 21
-139.0352308309657
 31
0.0
  0
LINE
  5
20A
330
21
100
AcDbEntity
  8
0
  6
ACAD_ISO02W100
 62
     1
100
AcDbLine
 10
260.5257316178719
 20
-124.0685814616136
 30
0.0
 11
259.8756739713248
 21
168.3776802725814
 31
0.0
  0
LINE
  5
20B
330
21
100
AcDbEntity
  8
0
 62
     3
100
AcDbLine
 10
705.8289206973246
 20
189.4110226054638
 30
0.0
 11
706.5721439168489
 21
-144.5818583838721
 31
0.0
  0
LINE
  5
20C
330
21
100
AcDbEntity
  8
0
 62
     3
100
AcDbLine
 10
253.8289056528382
 20
189.4110226054636
 30
0.0
 11
705.8289206973246
 21
189.4110226054638
 31
0.0
  0
LINE
  5
20D
330
21
100
AcDbEntity
  8
0
 62
     3
100
AcDbLine
 10
254.5723710780769
 20
-145.0572903119583
 30
0.0
 11
253.8289056528382
 21
189.4110226054636
 31
0.0
  0
LINE
  5
20E
330
21
100
AcDbEntity
  8
0
 62
     3
100
AcDbLine
 10
706.5721439168489
 20
-144.5818583838721
 30
0.0
 11
254.5723710780769
 21
-145.0572903119583
 31
0.0
  0
LINE
  5
247
330
21
100
AcDbEntity
  8
0
 62
     3
100
AcDbLine
 10
722.5339440954428
 20
180.9110226054638
 30
0.0
 11
722.5339440954428
 21
-136.0881801558189
 31
0.0
  0
SOLID
  5
248
330
21
100
AcDbEntity
  8
0
 62
     3
100
AcDbTrace
 10
722.1172774287762
 20
180.9110226054638
 30
0.0
 11
722.9506107621094
 21
180.9110226054638
 31
0.0
 12
722.5339440954428
 22
183.4110226054638
 32
0.0
 13
722.5339440954428
 23
183.4110226054638
 33
0.0
  0
SOLID
  5
249
330
21
100
AcDbEntity
  8
0
 62
     3
100
AcDbTrace
 10
722.1172774287762
 20
-136.0881801558189
 30
0.0
 11
722.9506107621094
 21
-136.0881801558189
 31
0.0
 12
722.5339440954428
 22
-138.5881801558189
 32
0.0
 13
722.5339440954428
 23
-138.5881801558189
 33
0.0
  0
MTEXT
  5
24A
330
21
100
AcDbEntity
  8
0
 62
     3
100
AcDbMText
 10
734.2203968769673
 20
23.52784844128826
 30
0.0
 40
8.0
 41
0.0
 46
0.0
 71
     5
 72
     1
  1
322 [12 5/8]
 11
0.0000000000000001
 21
1.0
 31
0.0
 73
     1
 44
1.0
  0
LINE
  5
24D
330
21
100
AcDbEntity
  8
0
 62
     3
100
AcDbLine
 10
262.3422574418103
 20
205.9383416245296
 30
0.0
 11
697.3422574418102
 21
205.9383416245296
 31
0.0
  0
SOLID
  5
24E
330
21
100
AcDbEntity
  8
0
 62
     3
100
AcDbTrace
 10
262.3422574418103
 20
206.3550082911962
 30
0.0
 11
262.3422574418103
 21
205.5216749578629
 31
0.0
 12
259.8422574418103
 22
205.9383416245296
 32
0.0
 13
259.8422574418103
 23
205.9383416245296
 33
0.0
  0
SOLID
  5
24F
330
21
100
AcDbEntity
  8
0
 62
     3
100
AcDbTrace
 10
697.3422574418102
 20
206.3550082911962
 30
0.0
 11
697.3422574418102
 21
205.5216749578629
 31
0.0
 12
699.8422574418103
 22
205.9383416245296
 32
0.0
 13
699.8422574418103
 23
205.9383416245296
 33
0.0
  0
MTEXT
  5
250
330
21
100
AcDbEntity
  8
0
 62
     3
100
AcDbMText
 10
479.7751065720047
 20
216.9896193001803
 30
0.0
 40
8.0
 41
0.0
 46
0.0
 71
     5
 72
     1
  1
440 [17 3/8]
 73
     1
 44
1.0
  0
ARC
  5
2A9
330
21
100
AcDbEntity
  8
0
  6
ACAD_ISO02W100
 62
     1
100
AcDbCircle
 10
274.8756369142403
 20
168.4110226054638
 30
0.0
 40
15.0
100
AcDbArc
 50
90.0
 51
180.1273584350974
  0
ARC
  5
2AC
330
21
100
AcDbEntity
  8
0
  6
ACAD_ISO02W100
 62
     1
100
AcDbCircle
 10
684.875599303024
 20
168.4110226054638
 30
0.0
 40
15.0
100
AcDbArc
 50
0.127498176908275
 51
90.0
  0
ARC
  5
2AD
330
21
100
AcDbEntity
  8
0
  6
ACAD_ISO02W100
 62
     1
100
AcDbCircle
 10
275.5256945607874
 20
-124.0352391287312
 30
0.0
 40
15.0
100
AcDbArc
 50
180.1273584350974
 51
270.060266032233
  0
ARC
  5
2AE
330
21
100
AcDbEntity
  8
0
  6
ACAD_ISO02W100
 62
     1
100
AcDbCircle
 10
685.5254105599319
 20
-123.6039845856856
 30
0.0
 40
15.0
100
AcDbArc
 50
270.060266032233
 51
0.1274981769083005
  0
ENDSEC
  0
SECTION
  2
OBJECTS
  0
DICTIONARY
  5
C
330
0
100
AcDbDictionary
281
     1
  3
ACAD_COLOR
350
1C
  3
ACAD_GROUP
350
D
  3
ACAD_LAYOUT
350
1A
  3
ACAD_MATERIAL
350
1B
  3
ACAD_MLEADERSTYLE
350
2A1
  3
ACAD_MLINESTYLE
350
17
  3
ACAD_PLOTSETTINGS
350
19
  3
ACAD_PLOTSTYLENAME
350
E
  3
ACAD_SCALELIST
350
27F
  3
ACAD_TABLESTYLE
350
27D
  3
ACAD_VISUALSTYLE
350
26C
  3
ACDB_RECOMPOSE_DATA
350
2B9
  3
AcDbVariableDictionary
350
2B1
  0
DICTIONARY
  5
78
330
2
100
AcDbDictionary
280
     1
281
     1
  3
ACAD_LAYERSTATES
360
79
  0
DICTIONARY
  5
2AF
330
10
100
AcDbDictionary
280
     1
281
     1
  3
ADSK_XREC_LAYER_RECONCILED
360
2B0
  0
DICTIONARY
  5
2AA
330
21
100
AcDbDictionary
280
     1
281
     1
  3
ACAD_SORTENTS
360
2AB
  0
DICTIONARY
  5
1C
102
{ACAD_REACTORS
330
C
102
}
330
C
100
AcDbDictionary
281
     1
  0
DICTIONARY
  5
D
102
{ACAD_REACTORS
330
C
102
}
330
C
100
AcDbDictionary
281
     1
  0
DICTIONARY
  5
1A
102
{ACAD_REACTORS
330
C
102
}
330
C
100
AcDbDictionary
281
     1
  3
Model
350
24
  3
布局1
350
20
  3
布局2
350
28
  0
DICTIONARY
  5
1B
102
{ACAD_REACTORS
330
C
102
}
330
C
100
AcDbDictionary
281
     1
  3
ByBlock
350
25C
  3
ByLayer
350
254
  3
Global
350
264
  0
DICTIONARY
  5
2A1
102
{ACAD_REACTORS
330
C
102
}
330
C
100
AcDbDictionary
281
     1
  3
Standard
350
2A2
  0
DICTIONARY
  5
17
102
{ACAD_REACTORS
330
C
102
}
330
C
100
AcDbDictionary
281
     1
  3
Standard
350
18
  0
DICTIONARY
  5
19
102
{ACAD_REACTORS
330
C
102
}
330
C
100
AcDbDictionary
281
     1
  0
ACDBDICTIONARYWDFLT
  5
E
102
{ACAD_REACTORS
330
C
102
}
330
C
100
AcDbDictionary
281
     1
  3
Normal
350
F
100
AcDbDictionaryWithDefault
340
F
  0
DICTIONARY
  5
27F
102
{ACAD_REACTORS
330
C
102
}
330
C
100
AcDbDictionary
281
     1
  3
A0
350
280
  3
A1
350
281
  3
A2
350
282
  3
A3
350
283
  3
A4
350
284
  3
A5
350
285
  3
A6
350
286
  3
A7
350
287
  3
A8
350
288
  3
A9
350
289
  3
B0
350
28A
  3
B1
350
28B
  3
B2
350
28C
  3
B3
350
28D
  3
B4
350
28E
  3
B5
350
28F
  3
B6
350
290
  3
B7
350
291
  3
B8
350
292
  3
B9
350
293
  3
C0
350
294
  3
C1
350
295
  3
C2
350
296
  3
C3
350
297
  3
C4
350
298
  3
C5
350
299
  3
C6
350
29A
  3
C7
350
29B
  3
C8
350
29C
  3
C9
350
29D
  3
D0
350
29E
  3
D1
350
29F
  3
D2
350
2A0
  0
DICTIONARY
  5
27D
102
{ACAD_REACTORS
330
C
102
}
330
C
100
AcDbDictionary
281
     1
  3
Standard
350
27E
  0
DICTIONARY
  5
26C
102
{ACAD_REACTORS
330
C
102
}
330
C
100
AcDbDictionary
281
     1
  3
2dWireframe
350
272
  3
3D Hidden
350
274
  3
3dWireframe
350
273
  3
Basic
350
271
  3
Brighten
350
278
  3
ColorChange
350
27C
  3
Conceptual
350
275
  3
Dim
350
277
  3
Facepattern
350
27B
  3
Flat
350
26D
  3
FlatWithEdges
350
26E
  3
Gouraud
350
26F
  3
GouraudWithEdges
350
270
  3
Linepattern
350
27A
  3
Realistic
350
276
  3
Thicken
350
279
  0
XRECORD
  5
2B9
102
{ACAD_REACTORS
330
C
102
}
330
C
100
AcDbXrecord
280
     1
 90
        1
330
27E
  0
DICTIONARY
  5
2B1
102
{ACAD_REACTORS
330
C
102
}
330
C
100
AcDbDictionary
281
     1
  3
CANNOSCALE
350
2B5
  3
CMLEADERSTYLE
350
2B3
  3
CTABLESTYLE
350
2B2
  3
LIGHTINGUNITS
350
2B6
  3
MSLTSCALE
350
2B4
  0
DICTIONARY
  5
79
102
{ACAD_REACTORS
330
78
102
}
330
78
100
AcDbDictionary
281
     1
  0
XRECORD
  5
2B0
102
{ACAD_REACTORS
330
2AF
102
}
330
2AF
100
AcDbXrecord
280
     1
290
     1
  0
SORTENTSTABLE
  5
2AB
102
{ACAD_REACTORS
330
2AA
102
}
330
2AA
100
AcDbSortentsTable
330
21
331
249
  5
24F
331
2AD
  5
20D
331
19C
  5
19C
331
8D
  5
8D
331
20D
  5
249
331
2A9
  5
208
331
8B
  5
8B
331
20B
  5
247
331
89
  5
89
331
209
  5
20C
331
207
  5
207
331
176
  5
176
331
24E
  5
2AC
331
247
  5
24D
331
172
  5
172
331
24A
  5
250
331
2AE
  5
20A
331
19D
  5
19D
331
248
  5
24E
331
2AC
  5
20B
331
19B
  5
19B
331
20E
  5
24A
331
1FD
  5
1FD
331
8C
  5
8C
331
20C
  5
248
331
BA
  5
BA
331
8A
  5
8A
331
20A
  5
20E
331
88
  5
88
331
208
  5
209
331
24F
  5
2AD
331
175
  5
175
331
250
  5
2AE
331
24D
  5
2A9
331
173
  5
173
  0
LAYOUT
  5
24
102
{ACAD_REACTORS
330
1A
102
}
330
1A
100
AcDbPlotSettings
  1

  2
\\ALISE-4F2ADA9D7\Canon MP250 series Printer
  4

  6

 40
0.0
 41
0.0
 42
0.0
 43
0.0
 44
0.0
 45
0.0
 46
0.0
 47
0.0
 48
0.0
 49
0.0
140
0.0
141
0.0
142
1.0
143
1.0
 70
  1712
 72
     0
 73
     0
 74
     0
  7

 75
     0
147
1.0
 76
     0
 77
     2
 78
   300
148
0.0
149
0.0
100
AcDbLayout
  1
Model
 70
     1
 71
     0
 10
0.0
 20
0.0
 11
12.0
 21
9.0
 12
0.0
 22
0.0
 32
0.0
 14
0.0
 24
0.0
 34
0.0
 15
0.0
 25
0.0
 35
0.0
146
0.0
 13
0.0
 23
0.0
 33
0.0
 16
1.0
 26
0.0
 36
0.0
 17
0.0
 27
1.0
 37
0.0
 76
     0
330
21
331
251
  0
LAYOUT
  5
20
102
{ACAD_REACTORS
330
1A
102
}
330
1A
100
AcDbPlotSettings
  1

  2
\\ALISE-4F2ADA9D7\Canon MP250 series Printer
  4

  6

 40
0.0
 41
0.0
 42
0.0
 43
0.0
 44
0.0
 45
0.0
 46
0.0
 47
0.0
 48
0.0
 49
0.0
140
0.0
141
0.0
142
1.0
143
1.0
 70
   688
 72
     0
 73
     0
 74
     5
  7

 75
    16
147
1.0
 76
     0
 77
     2
 78
   300
148
0.0
149
0.0
100
AcDbLayout
  1
布局1
 70
     1
 71
     1
 10
0.0
 20
0.0
 11
420.0
 21
297.0
 12
0.0
 22
0.0
 32
0.0
 14
1.000000000000000E+20
 24
1.000000000000000E+20
 34
1.000000000000000E+20
 15
-1.000000000000000E+20
 25
-1.000000000000000E+20
 35
-1.000000000000000E+20
146
0.0
 13
0.0
 23
0.0
 33
0.0
 16
1.0
 26
0.0
 36
0.0
 17
0.0
 27
1.0
 37
0.0
 76
     0
330
1D
  0
LAYOUT
  5
28
102
{ACAD_REACTORS
330
1A
102
}
330
1A
100
AcDbPlotSettings
  1

  2
\\ALISE-4F2ADA9D7\Canon MP250 series Printer
  4

  6

 40
0.0
 41
0.0
 42
0.0
 43
0.0
 44
0.0
 45
0.0
 46
0.0
 47
0.0
 48
0.0
 49
0.0
140
0.0
141
0.0
142
1.0
143
1.0
 70
   688
 72
     0
 73
     0
 74
     5
  7

 75
    16
147
1.0
 76
     0
 77
     2
 78
   300
148
0.0
149
0.0
100
AcDbLayout
  1
布局2
 70
     1
 71
     2
 10
0.0
 20
0.0
 11
12.0
 21
9.0
 12
0.0
 22
0.0
 32
0.0
 14
0.0
 24
0.0
 34
0.0
 15
0.0
 25
0.0
 35
0.0
146
0.0
 13
0.0
 23
0.0
 33
0.0
 16
1.0
 26
0.0
 36
0.0
 17
0.0
 27
1.0
 37
0.0
 76
     0
330
25
  0
MATERIAL
  5
25C
102
{ACAD_XDICTIONARY
360
25D
102
}
102
{ACAD_REACTORS
330
1B
102
}
330
1B
100
AcDbMaterial
  1
ByBlock
 72
     0
 43
0.0008202099737533
 43
0.0
 43
0.0
 43
0.0
 43
0.0
 43
0.0008202099737533
 43
0.0
 43
0.0
 43
0.0
 43
0.0
 43
1.0
 43
0.0
 43
0.0
 43
0.0
 43
0.0
 43
1.0
 77
     0
 47
0.0008202099737533
 47
0.0
 47
0.0
 47
0.0
 47
0.0
 47
0.0008202099737533
 47
0.0
 47
0.0
 47
0.0
 47
0.0
 47
1.0
 47
0.0
 47
0.0
 47
0.0
 47
0.0
 47
1.0
171
     0
 49
0.0008202099737533
 49
0.0
 49
0.0
 49
0.0
 49
0.0
 49
0.0008202099737533
 49
0.0
 49
0.0
 49
0.0
 49
0.0
 49
1.0
 49
0.0
 49
0.0
 49
0.0
 49
0.0
 49
1.0
175
     0
142
0.0008202099737533
142
0.0
142
0.0
142
0.0
142
0.0
142
0.0008202099737533
142
0.0
142
0.0
142
0.0
142
0.0
142
1.0
142
0.0
142
0.0
142
0.0
142
0.0
142
1.0
179
     0
144
0.0008202099737533
144
0.0
144
0.0
144
0.0
144
0.0
144
0.0008202099737533
144
0.0
144
0.0
144
0.0
144
0.0
144
1.0
144
0.0
144
0.0
144
0.0
144
0.0
144
1.0
147
0.0008202099737533
147
0.0
147
0.0
147
0.0
147
0.0
147
0.0008202099737533
147
0.0
147
0.0
147
0.0
147
0.0
147
1.0
147
0.0
147
0.0
147
0.0
147
0.0
147
1.0
  0
MATERIAL
  5
254
102
{ACAD_XDICTIONARY
360
255
102
}
102
{ACAD_REACTORS
330
1B
102
}
330
1B
100
AcDbMaterial
  1
ByLayer
 72
     0
 43
0.0008202099737533
 43
0.0
 43
0.0
 43
0.0
 43
0.0
 43
0.0008202099737533
 43
0.0
 43
0.0
 43
0.0
 43
0.0
 43
1.0
 43
0.0
 43
0.0
 43
0.0
 43
0.0
 43
1.0
 77
     0
 47
0.0008202099737533
 47
0.0
 47
0.0
 47
0.0
 47
0.0
 47
0.0008202099737533
 47
0.0
 47
0.0
 47
0.0
 47
0.0
 47
1.0
 47
0.0
 47
0.0
 47
0.0
 47
0.0
 47
1.0
171
     0
 49
0.0008202099737533
 49
0.0
 49
0.0
 49
0.0
 49
0.0
 49
0.0008202099737533
 49
0.0
 49
0.0
 49
0.0
 49
0.0
 49
1.0
 49
0.0
 49
0.0
 49
0.0
 49
0.0
 49
1.0
175
     0
142
0.0008202099737533
142
0.0
142
0.0
142
0.0
142
0.0
142
0.0008202099737533
142
0.0
142
0.0
142
0.0
142
0.0
142
1.0
142
0.0
142
0.0
142
0.0
142
0.0
142
1.0
179
     0
144
0.0008202099737533
144
0.0
144
0.0
144
0.0
144
0.0
144
0.0008202099737533
144
0.0
144
0.0
144
0.0
144
0.0
144
1.0
144
0.0
144
0.0
144
0.0
144
0.0
144
1.0
147
0.0008202099737533
147
0.0
147
0.0
147
0.0
147
0.0
147
0.0008202099737533
147
0.0
147
0.0
147
0.0
147
0.0
147
1.0
147
0.0
147
0.0
147
0.0
147
0.0
147
1.0
  0
MATERIAL
  5
264
102
{ACAD_XDICTIONARY
360
265
102
}
102
{ACAD_REACTORS
330
1B
102
}
330
1B
100
AcDbMaterial
  1
Global
 72
     0
 43
0.0008202099737533
 43
0.0
 43
0.0
 43
0.0
 43
0.0
 43
0.0008202099737533
 43
0.0
 43
0.0
 43
0.0
 43
0.0
 43
1.0
 43
0.0
 43
0.0
 43
0.0
 43
0.0
 43
1.0
 77
     0
 47
0.0008202099737533
 47
0.0
 47
0.0
 47
0.0
 47
0.0
 47
0.0008202099737533
 47
0.0
 47
0.0
 47
0.0
 47
0.0
 47
1.0
 47
0.0
 47
0.0
 47
0.0
 47
0.0
 47
1.0
171
     0
 49
0.0008202099737533
 49
0.0
 49
0.0
 49
0.0
 49
0.0
 49
0.0008202099737533
 49
0.0
 49
0.0
 49
0.0
 49
0.0
 49
1.0
 49
0.0
 49
0.0
 49
0.0
 49
0.0
 49
1.0
175
     0
142
0.0008202099737533
142
0.0
142
0.0
142
0.0
142
0.0
142
0.0008202099737533
142
0.0
142
0.0
142
0.0
142
0.0
142
1.0
142
0.0
142
0.0
142
0.0
142
0.0
142
1.0
179
     0
144
0.0008202099737533
144
0.0
144
0.0
144
0.0
144
0.0
144
0.0008202099737533
144
0.0
144
0.0
144
0.0
144
0.0
144
1.0
144
0.0
144
0.0
144
0.0
144
0.0
144
1.0
147
0.0008202099737533
147
0.0
147
0.0
147
0.0
147
0.0
147
0.0008202099737533
147
0.0
147
0.0
147
0.0
147
0.0
147
1.0
147
0.0
147
0.0
147
0.0
147
0.0
147
1.0
  0
MLEADERSTYLE
  5
2A2
102
{ACAD_REACTORS
330
2A1
102
}
330
2A1
100
AcDbMLeaderStyle
170
     2
171
     1
172
     0
 90
        2
 40
0.0
 41
0.0
173
     1
 91
-1056964608
340
14
 92
       -2
290
     1
 42
2.0
291
     1
 43
0.36
  3
Standard
 44
4.0
300

342
11
174
     1
178
     6
175
     1
176
     0
 93
-1056964608
 45
4.0
292
     0
297
     0
 46
4.0
 94
-1056964608
 47
1.0
 49
1.0
140
1.0
293
     1
141
0.0
294
     1
177
     0
142
1.0
295
     0
296
     0
143
0.125
1001
ACAD_MLEADERVER
1070
     2
  0
MLINESTYLE
  5
18
102
{ACAD_REACTORS
330
17
102
}
330
17
100
AcDbMlineStyle
  2
STANDARD
 70
     0
  3

 62
   256
 51
90.0
 52
90.0
 71
     2
 49
0.5
 62
   256
  6
BYLAYER
 49
-0.5
 62
   256
  6
BYLAYER
  0
ACDBPLACEHOLDER
  5
F
102
{ACAD_REACTORS
330
E
102
}
330
E
  0
SCALE
  5
280
102
{ACAD_REACTORS
330
27F
102
}
330
27F
100
AcDbScale
 70
     0
300
1:1
140
1.0
141
1.0
290
     1
  0
SCALE
  5
281
102
{ACAD_REACTORS
330
27F
102
}
330
27F
100
AcDbScale
 70
     0
300
1:2
140
1.0
141
2.0
290
     0
  0
SCALE
  5
282
102
{ACAD_REACTORS
330
27F
102
}
330
27F
100
AcDbScale
 70
     0
300
1:4
140
1.0
141
4.0
290
     0
  0
SCALE
  5
283
102
{ACAD_REACTORS
330
27F
102
}
330
27F
100
AcDbScale
 70
     0
300
1:5
140
1.0
141
5.0
290
     0
  0
SCALE
  5
284
102
{ACAD_REACTORS
330
27F
102
}
330
27F
100
AcDbScale
 70
     0
300
1:8
140
1.0
141
8.0
290
     0
  0
SCALE
  5
285
102
{ACAD_REACTORS
330
27F
102
}
330
27F
100
AcDbScale
 70
     0
300
1:10
140
1.0
141
10.0
290
     0
  0
SCALE
  5
286
102
{ACAD_REACTORS
330
27F
102
}
330
27F
100
AcDbScale
 70
     0
300
1:16
140
1.0
141
16.0
290
     0
  0
SCALE
  5
287
102
{ACAD_REACTORS
330
27F
102
}
330
27F
100
AcDbScale
 70
     0
300
1:20
140
1.0
141
20.0
290
     0
  0
SCALE
  5
288
102
{ACAD_REACTORS
330
27F
102
}
330
27F
100
AcDbScale
 70
     0
300
1:30
140
1.0
141
30.0
290
     0
  0
SCALE
  5
289
102
{ACAD_REACTORS
330
27F
102
}
330
27F
100
AcDbScale
 70
     0
300
1:40
140
1.0
141
40.0
290
     0
  0
SCALE
  5
28A
102
{ACAD_REACTORS
330
27F
102
}
330
27F
100
AcDbScale
 70
     0
300
1:50
140
1.0
141
50.0
290
     0
  0
SCALE
  5
28B
102
{ACAD_REACTORS
330
27F
102
}
330
27F
100
AcDbScale
 70
     0
300
1:100
140
1.0
141
100.0
290
     0
  0
SCALE
  5
28C
102
{ACAD_REACTORS
330
27F
102
}
330
27F
100
AcDbScale
 70
     0
300
2:1
140
2.0
141
1.0
290
     0
  0
SCALE
  5
28D
102
{ACAD_REACTORS
330
27F
102
}
330
27F
100
AcDbScale
 70
     0
300
4:1
140
4.0
141
1.0
290
     0
  0
SCALE
  5
28E
102
{ACAD_REACTORS
330
27F
102
}
330
27F
100
AcDbScale
 70
     0
300
8:1
140
8.0
141
1.0
290
     0
  0
SCALE
  5
28F
102
{ACAD_REACTORS
330
27F
102
}
330
27F
100
AcDbScale
 70
     0
300
10:1
140
10.0
141
1.0
290
     0
  0
SCALE
  5
290
102
{ACAD_REACTORS
330
27F
102
}
330
27F
100
AcDbScale
 70
     0
300
100:1
140
100.0
141
1.0
290
     0
  0
SCALE
  5
291
102
{ACAD_REACTORS
330
27F
102
}
330
27F
100
AcDbScale
 70
     0
300
1/128" = 1'-0"
140
0.0078125
141
12.0
290
     0
  0
SCALE
  5
292
102
{ACAD_REACTORS
330
27F
102
}
330
27F
100
AcDbScale
 70
     0
300
1/64" = 1'-0"
140
0.015625
141
12.0
290
     0
  0
SCALE
  5
293
102
{ACAD_REACTORS
330
27F
102
}
330
27F
100
AcDbScale
 70
     0
300
1/32" = 1'-0"
140
0.03125
141
12.0
290
     0
  0
SCALE
  5
294
102
{ACAD_REACTORS
330
27F
102
}
330
27F
100
AcDbScale
 70
     0
300
1/16" = 1'-0"
140
0.0625
141
12.0
290
     0
  0
SCALE
  5
295
102
{ACAD_REACTORS
330
27F
102
}
330
27F
100
AcDbScale
 70
     0
300
3/32" = 1'-0"
140
0.09375
141
12.0
290
     0
  0
SCALE
  5
296
102
{ACAD_REACTORS
330
27F
102
}
330
27F
100
AcDbScale
 70
     0
300
1/8" = 1'-0"
140
0.125
141
12.0
290
     0
  0
SCALE
  5
297
102
{ACAD_REACTORS
330
27F
102
}
330
27F
100
AcDbScale
 70
     0
300
3/16" = 1'-0"
140
0.1875
141
12.0
290
     0
  0
SCALE
  5
298
102
{ACAD_REACTORS
330
27F
102
}
330
27F
100
AcDbScale
 70
     0
300
1/4" = 1'-0"
140
0.25
141
12.0
290
     0
  0
SCALE
  5
299
102
{ACAD_REACTORS
330
27F
102
}
330
27F
100
AcDbScale
 70
     0
300
3/8" = 1'-0"
140
0.375
141
12.0
290
     0
  0
SCALE
  5
29A
102
{ACAD_REACTORS
330
27F
102
}
330
27F
100
AcDbScale
 70
     0
300
1/2" = 1'-0"
140
0.5
141
12.0
290
     0
  0
SCALE
  5
29B
102
{ACAD_REACTORS
330
27F
102
}
330
27F
100
AcDbScale
 70
     0
300
3/4" = 1'-0"
140
0.75
141
12.0
290
     0
  0
SCALE
  5
29C
102
{ACAD_REACTORS
330
27F
102
}
330
27F
100
AcDbScale
 70
     0
300
1" = 1'-0"
140
1.0
141
12.0
290
     0
  0
SCALE
  5
29D
102
{ACAD_REACTORS
330
27F
102
}
330
27F
100
AcDbScale
 70
     0
300
1-1/2" = 1'-0"
140
1.5
141
12.0
290
     0
  0
SCALE
  5
29E
102
{ACAD_REACTORS
330
27F
102
}
330
27F
100
AcDbScale
 70
     0
300
3" = 1'-0"
140
3.0
141
12.0
290
     0
  0
SCALE
  5
29F
102
{ACAD_REACTORS
330
27F
102
}
330
27F
100
AcDbScale
 70
     0
300
6" = 1'-0"
140
6.0
141
12.0
290
     0
  0
SCALE
  5
2A0
102
{ACAD_REACTORS
330
27F
102
}
330
27F
100
AcDbScale
 70
     0
300
1'-0" = 1'-0"
140
12.0
141
12.0
290
     0
  0
TABLESTYLE
  5
27E
102
{ACAD_XDICTIONARY
360
2B7
102
}
102
{ACAD_REACTORS
330
27D
102
}
330
27D
100
AcDbTableStyle
  3
Standard
 70
     0
 71
     0
 40
1.5
 41
1.5
280
     0
281
     0
  7
Standard
140
4.5
170
     2
 62
     0
 63
     7
283
     0
 90
      512
 91
        0
  1

274
    -2
284
     1
 64
     0
275
    -2
285
     1
 65
     0
276
    -2
286
     1
 66
     0
277
    -2
287
     1
 67
     0
278
    -2
288
     1
 68
     0
279
    -2
289
     1
 69
     0
  7
Standard
140
6.0
170
     5
 62
     0
 63
     7
283
     0
 90
      512
 91
        0
  1

274
    -2
284
     1
 64
     0
275
    -2
285
     1
 65
     0
276
    -2
286
     1
 66
     0
277
    -2
287
     1
 67
     0
278
    -2
288
     1
 68
     0
279
    -2
289
     1
 69
     0
  7
Standard
140
4.5
170
     5
 62
     0
 63
     7
283
     0
 90
      512
 91
        0
  1

274
    -2
284
     1
 64
     0
275
    -2
285
     1
 65
     0
276
    -2
286
     1
 66
     0
277
    -2
287
     1
 67
     0
278
    -2
288
     1
 68
     0
279
    -2
289
     1
 69
     0
  0
VISUALSTYLE
  5
272
102
{ACAD_REACTORS
330
26C
102
}
330
26C
100
AcDbVisualStyle
  2
2dWireframe
 70
     4
 71
     0
 72
     2
 73
     0
 90
        0
 40
-0.6
 41
-30.0
 62
     5
 63
     7
421
 16777215
 74
     1
 91
        4
 64
     7
 65
   257
 75
     1
175
     1
 42
1.0
 92
        0
 66
   257
 43
1.0
 76
     1
 77
     6
 78
     2
 67
     7
 79
     5
170
     0
171
     0
290
     0
174
     0
 93
        1
 44
0.0
173
     0
291
     0
 45
0.0
  0
VISUALSTYLE
  5
274
102
{ACAD_REACTORS
330
26C
102
}
330
26C
100
AcDbVisualStyle
  2
3D Hidden
 70
     6
 71
     1
 72
     2
 73
     2
 90
        0
 40
-0.6
 41
-30.0
 62
     5
 63
     7
421
 16777215
 74
     2
 91
        2
 64
     7
 65
   257
 75
     2
175
     1
 42
40.0
 92
        0
 66
   257
 43
1.0
 76
     1
 77
     6
 78
     2
 67
     7
 79
     3
170
     0
171
     0
290
     0
174
     0
 93
        1
 44
0.0
173
     0
291
     0
 45
0.0
  0
VISUALSTYLE
  5
273
102
{ACAD_REACTORS
330
26C
102
}
330
26C
100
AcDbVisualStyle
  2
3dWireframe
 70
     5
 71
     0
 72
     2
 73
     0
 90
        0
 40
-0.6
 41
-30.0
 62
     5
 63
     7
421
 16777215
 74
     1
 91
        4
 64
     7
 65
   257
 75
     1
175
     1
 42
1.0
 92
        0
 66
   257
 43
1.0
 76
     1
 77
     6
 78
     2
 67
     7
 79
     5
170
     0
171
     0
290
     0
174
     0
 93
        1
 44
0.0
173
     0
291
     0
 45
0.0
  0
VISUALSTYLE
  5
271
102
{ACAD_REACTORS
330
26C
102
}
330
26C
100
AcDbVisualStyle
  2
Basic
 70
     7
 71
     1
 72
     0
 73
     1
 90
        0
 40
-0.6
 41
-30.0
 62
     5
 63
     7
421
 16777215
 74
     0
 91
        4
 64
     7
 65
   257
 75
     1
175
     1
 42
1.0
 92
        8
 66
     7
 43
1.0
 76
     1
 77
     6
 78
     2
 67
     7
 79
     5
170
     0
171
     0
290
     0
174
     0
 93
        1
 44
0.0
173
     0
291
     1
 45
0.0
  0
VISUALSTYLE
  5
278
102
{ACAD_REACTORS
330
26C
102
}
330
26C
100
AcDbVisualStyle
  2
Brighten
 70
    12
 71
     2
 72
     2
 73
     0
 90
        0
 40
-0.6
 41
-30.0
 62
     5
 63
     7
421
 16777215
 74
     1
 91
        4
 64
     7
 65
   257
 75
     1
175
     1
 42
1.0
 92
        8
 66
     7
 43
1.0
 76
     1
 77
     6
 78
     2
 67
     7
 79
     5
170
     0
171
     0
290
     0
174
     0
 93
        1
 44
50.0
173
     0
291
     1
 45
0.0
  0
VISUALSTYLE
  5
27C
102
{ACAD_REACTORS
330
26C
102
}
330
26C
100
AcDbVisualStyle
  2
ColorChange
 70
    16
 71
     2
 72
     2
 73
     3
 90
        0
 40
-0.6
 41
-30.0
 62
     5
 63
     8
421
  8421504
 74
     1
 91
        4
 64
     7
 65
   257
 75
     1
175
     1
 42
1.0
 92
        8
 66
     8
424
  8421504
 43
1.0
 76
     1
 77
     6
 78
     2
 67
     7
 79
     5
170
     0
171
     0
290
     0
174
     0
 93
        1
 44
0.0
173
     0
291
     1
 45
0.0
  0
VISUALSTYLE
  5
275
102
{ACAD_REACTORS
330
26C
102
}
330
26C
100
AcDbVisualStyle
  2
Conceptual
 70
     9
 71
     3
 72
     2
 73
     0
 90
        0
 40
-0.6
 41
-30.0
 62
     5
 63
     7
421
 16777215
 74
     2
 91
        2
 64
     7
 65
   257
 75
     1
175
     1
 42
40.0
 92
        8
 66
     7
 43
1.0
 76
     1
 77
     6
 78
     2
 67
     7
 79
     3
170
     0
171
     0
290
     0
174
     0
 93
        1
 44
0.0
173
     0
291
     0
 45
0.0
  0
VISUALSTYLE
  5
277
102
{ACAD_REACTORS
330
26C
102
}
330
26C
100
AcDbVisualStyle
  2
Dim
 70
    11
 71
     2
 72
     2
 73
     0
 90
        0
 40
-0.6
 41
-30.0
 62
     5
 63
     7
421
 16777215
 74
     1
 91
        4
 64
     7
 65
   257
 75
     1
175
     1
 42
1.0
 92
        8
 66
     7
 43
1.0
 76
     1
 77
     6
 78
     2
 67
     7
 79
     5
170
     0
171
     0
290
     0
174
     0
 93
        1
 44
-50.0
173
     0
291
     1
 45
0.0
  0
VISUALSTYLE
  5
27B
102
{ACAD_REACTORS
330
26C
102
}
330
26C
100
AcDbVisualStyle
  2
Facepattern
 70
    15
 71
     2
 72
     2
 73
     0
 90
        0
 40
-0.6
 41
-30.0
 62
     5
 63
     7
421
 16777215
 74
     1
 91
        4
 64
     7
 65
   257
 75
     1
175
     1
 42
1.0
 92
        8
 66
     7
 43
1.0
 76
     1
 77
     6
 78
     2
 67
     7
 79
     5
170
     0
171
     0
290
     0
174
     0
 93
        1
 44
0.0
173
     0
291
     1
 45
0.0
  0
VISUALSTYLE
  5
26D
102
{ACAD_REACTORS
330
26C
102
}
330
26C
100
AcDbVisualStyle
  2
Flat
 70
     0
 71
     2
 72
     1
 73
     1
 90
        2
 40
-0.6
 41
30.0
 62
     5
 63
     7
421
 16777215
 74
     0
 91
        4
 64
     7
 65
   257
 75
     1
175
     1
 42
1.0
 92
        8
 66
     7
 43
1.0
 76
     1
 77
     6
 78
     2
 67
     7
 79
     5
170
     0
171
     0
290
     0
174
     0
 93
       13
 44
0.0
173
     0
291
     1
 45
0.0
  0
VISUALSTYLE
  5
26E
102
{ACAD_REACTORS
330
26C
102
}
330
26C
100
AcDbVisualStyle
  2
FlatWithEdges
 70
     1
 71
     2
 72
     1
 73
     1
 90
        2
 40
-0.6
 41
30.0
 62
     5
 63
     7
421
 16777215
 74
     1
 91
        4
 64
     7
 65
   257
 75
     1
175
     1
 42
1.0
 92
        0
 66
   257
 43
1.0
 76
     1
 77
     6
 78
     2
 67
     7
 79
     5
170
     0
171
     0
290
     0
174
     0
 93
       13
 44
0.0
173
     0
291
     1
 45
0.0
  0
VISUALSTYLE
  5
26F
102
{ACAD_REACTORS
330
26C
102
}
330
26C
100
AcDbVisualStyle
  2
Gouraud
 70
     2
 71
     2
 72
     2
 73
     1
 90
        2
 40
-0.6
 41
30.0
 62
     5
 63
     7
421
 16777215
 74
     0
 91
        4
 64
     7
 65
   257
 75
     1
175
     1
 42
1.0
 92
        0
 66
     7
 43
1.0
 76
     1
 77
     6
 78
     2
 67
     7
 79
     5
170
     0
171
     0
290
     0
174
     0
 93
       13
 44
0.0
173
     0
291
     1
 45
0.0
  0
VISUALSTYLE
  5
270
102
{ACAD_REACTORS
330
26C
102
}
330
26C
100
AcDbVisualStyle
  2
GouraudWithEdges
 70
     3
 71
     2
 72
     2
 73
     1
 90
        2
 40
-0.6
 41
30.0
 62
     5
 63
     7
421
 16777215
 74
     1
 91
        4
 64
     7
 65
   257
 75
     1
175
     1
 42
1.0
 92
        0
 66
   257
 43
1.0
 76
     1
 77
     6
 78
     2
 67
     7
 79
     5
170
     0
171
     0
290
     0
174
     0
 93
       13
 44
0.0
173
     0
291
     1
 45
0.0
  0
VISUALSTYLE
  5
27A
102
{ACAD_REACTORS
330
26C
102
}
330
26C
100
AcDbVisualStyle
  2
Linepattern
 70
    14
 71
     2
 72
     2
 73
     0
 90
        0
 40
-0.6
 41
-30.0
 62
     5
 63
     7
421
 16777215
 74
     1
 91
        4
 64
     7
 65
   257
 75
     7
175
     7
 42
1.0
 92
        8
 66
     7
 43
1.0
 76
     1
 77
     6
 78
     2
 67
     7
 79
     5
170
     0
171
     0
290
     0
174
     0
 93
        1
 44
0.0
173
     0
291
     1
 45
0.0
  0
VISUALSTYLE
  5
276
102
{ACAD_REACTORS
330
26C
102
}
330
26C
100
AcDbVisualStyle
  2
Realistic
 70
     8
 71
     2
 72
     2
 73
     0
 90
        0
 40
-0.6
 41
-30.0
 62
     5
 63
     7
421
 16777215
 74
     1
 91
        0
 64
     7
 65
   257
 75
     1
175
     1
 42
1.0
 92
        8
 66
     8
424
  7895160
 43
1.0
 76
     1
 77
     6
 78
     2
 67
     7
 79
     5
170
     0
171
     0
290
     0
174
     0
 93
       13
 44
0.0
173
     0
291
     0
 45
0.0
  0
VISUALSTYLE
  5
279
102
{ACAD_REACTORS
330
26C
102
}
330
26C
100
AcDbVisualStyle
  2
Thicken
 70
    13
 71
     2
 72
     2
 73
     0
 90
        0
 40
-0.6
 41
-30.0
 62
     5
 63
     7
421
 16777215
 74
     1
 91
        4
 64
     7
 65
   257
 75
     1
175
     1
 42
1.0
 92
       12
 66
     7
 43
1.0
 76
     1
 77
     6
 78
     2
 67
     7
 79
     5
170
     0
171
     0
290
     0
174
     0
 93
        1
 44
0.0
173
     0
291
     1
 45
0.0
  0
DICTIONARYVAR
  5
2B5
102
{ACAD_REACTORS
330
2B1
102
}
330
2B1
100
DictionaryVariables
280
     0
  1
1:1
  0
DICTIONARYVAR
  5
2B3
102
{ACAD_REACTORS
330
2B1
102
}
330
2B1
100
DictionaryVariables
280
     0
  1
STANDARD
  0
DICTIONARYVAR
  5
2B2
102
{ACAD_REACTORS
330
2B1
102
}
330
2B1
100
DictionaryVariables
280
     0
  1
STANDARD
  0
DICTIONARYVAR
  5
2B6
102
{ACAD_REACTORS
330
2B1
102
}
330
2B1
100
DictionaryVariables
280
     0
  1
0
  0
DICTIONARYVAR
  5
2B4
102
{ACAD_REACTORS
330
2B1
102
}
330
2B1
100
DictionaryVariables
280
     0
  1
0
  0
DICTIONARY
  5
25D
330
25C
100
AcDbDictionary
280
     1
281
     1
  3
BUMPTILE
360
25F
  3
DIFFUSETILE
360
25E
  3
OPACITYTILE
360
262
  3
REFLECTIONTILE
360
261
  3
REFRACTIONTILE
360
263
  3
SPECULARTILE
360
260
  0
DICTIONARY
  5
255
330
254
100
AcDbDictionary
280
     1
281
     1
  3
BUMPTILE
360
257
  3
DIFFUSETILE
360
256
  3
OPACITYTILE
360
25A
  3
REFLECTIONTILE
360
259
  3
REFRACTIONTILE
360
25B
  3
SPECULARTILE
360
258
  0
DICTIONARY
  5
265
330
264
100
AcDbDictionary
280
     1
281
     1
  3
BUMPTILE
360
267
  3
DIFFUSETILE
360
266
  3
OPACITYTILE
360
26A
  3
REFLECTIONTILE
360
269
  3
REFRACTIONTILE
360
26B
  3
SPECULARTILE
360
268
  0
DICTIONARY
  5
2B7
330
27E
100
AcDbDictionary
280
     1
281
     1
  3
ACAD_ROUNDTRIP_2008_TABLESTYLE_CELLSTYLEMAP
360
2B8
  0
XRECORD
  5
25F
102
{ACAD_REACTORS
330
25D
102
}
330
25D
100
AcDbXrecord
280
     1
270
     1
271
     1
  0
XRECORD
  5
25E
102
{ACAD_REACTORS
330
25D
102
}
330
25D
100
AcDbXrecord
280
     1
270
     1
271
     1
  0
XRECORD
  5
262
102
{ACAD_REACTORS
330
25D
102
}
330
25D
100
AcDbXrecord
280
     1
270
     1
271
     1
  0
XRECORD
  5
261
102
{ACAD_REACTORS
330
25D
102
}
330
25D
100
AcDbXrecord
280
     1
270
     1
271
     1
  0
XRECORD
  5
263
102
{ACAD_REACTORS
330
25D
102
}
330
25D
100
AcDbXrecord
280
     1
270
     1
271
     1
  0
XRECORD
  5
260
102
{ACAD_REACTORS
330
25D
102
}
330
25D
100
AcDbXrecord
280
     1
270
     1
271
     1
  0
XRECORD
  5
257
102
{ACAD_REACTORS
330
255
102
}
330
255
100
AcDbXrecord
280
     1
270
     1
271
     1
  0
XRECORD
  5
256
102
{ACAD_REACTORS
330
255
102
}
330
255
100
AcDbXrecord
280
     1
270
     1
271
     1
  0
XRECORD
  5
25A
102
{ACAD_REACTORS
330
255
102
}
330
255
100
AcDbXrecord
280
     1
270
     1
271
     1
  0
XRECORD
  5
259
102
{ACAD_REACTORS
330
255
102
}
330
255
100
AcDbXrecord
280
     1
270
     1
271
     1
  0
XRECORD
  5
25B
102
{ACAD_REACTORS
330
255
102
}
330
255
100
AcDbXrecord
280
     1
270
     1
271
     1
  0
XRECORD
  5
258
102
{ACAD_REACTORS
330
255
102
}
330
255
100
AcDbXrecord
280
     1
270
     1
271
     1
  0
XRECORD
  5
267
102
{ACAD_REACTORS
330
265
102
}
330
265
100
AcDbXrecord
280
     1
270
     1
271
     1
  0
XRECORD
  5
266
102
{ACAD_REACTORS
330
265
102
}
330
265
100
AcDbXrecord
280
     1
270
     1
271
     1
  0
XRECORD
  5
26A
102
{ACAD_REACTORS
330
265
102
}
330
265
100
AcDbXrecord
280
     1
270
     1
271
     1
  0
XRECORD
  5
269
102
{ACAD_REACTORS
330
265
102
}
330
265
100
AcDbXrecord
280
     1
270
     1
271
     1
  0
XRECORD
  5
26B
102
{ACAD_REACTORS
330
265
102
}
330
265
100
AcDbXrecord
280
     1
270
     1
271
     1
  0
XRECORD
  5
268
102
{ACAD_REACTORS
330
265
102
}
330
265
100
AcDbXrecord
280
     1
270
     1
271
     1
  0
CELLSTYLEMAP
  5
2B8
102
{ACAD_REACTORS
330
2B7
102
}
330
2B7
100
AcDbCellStyleMap
 90
        3
300
CELLSTYLE
  1
TABLEFORMAT_BEGIN
 90
        5
170
     1
 91
        0
 92
    32768
 62
   257
 93
        1
300
CONTENTFORMAT
  1
CONTENTFORMAT_BEGIN
 90
        0
 91
        0
 92
      512
 93
        0
300

 40
0.0
140
1.0
 94
        5
 62
     0
340
11
144
6.0
309
CONTENTFORMAT_END
171
     1
301
MARGIN
  1
CELLMARGIN_BEGIN
 40
1.5
 40
1.5
 40
1.5
 40
1.5
 40
4.5
 40
4.5
309
CELLMARGIN_END
 94
        6
 95
        1
302
GRIDFORMAT
  1
GRIDFORMAT_BEGIN
 90
        0
 91
        1
 62
     0
 92
       -2
340
0
 93
        0
 40
1.125
309
GRIDFORMAT_END
 95
        2
302
GRIDFORMAT
  1
GRIDFORMAT_BEGIN
 90
        0
 91
        1
 62
     0
 92
       -2
340
0
 93
        0
 40
1.125
309
GRIDFORMAT_END
 95
        4
302
GRIDFORMAT
  1
GRIDFORMAT_BEGIN
 90
        0
 91
        1
 62
     0
 92
       -2
340
0
 93
        0
 40
1.125
309
GRIDFORMAT_END
 95
        8
302
GRIDFORMAT
  1
GRIDFORMAT_BEGIN
 90
        0
 91
        1
 62
     0
 92
       -2
340
0
 93
        0
 40
1.125
309
GRIDFORMAT_END
 95
       16
302
GRIDFORMAT
  1
GRIDFORMAT_BEGIN
 90
        0
 91
        1
 62
     0
 92
       -2
340
0
 93
        0
 40
1.125
309
GRIDFORMAT_END
 95
       32
302
GRIDFORMAT
  1
GRIDFORMAT_BEGIN
 90
        0
 91
        1
 62
     0
 92
       -2
340
0
 93
        0
 40
1.125
309
GRIDFORMAT_END
309
TABLEFORMAT_END
  1
CELLSTYLE_BEGIN
 90
        1
 91
        1
300
_TITLE
309
CELLSTYLE_END
300
CELLSTYLE
  1
TABLEFORMAT_BEGIN
 90
        5
170
     1
 91
        0
 92
        0
 62
   257
 93
        1
300
CONTENTFORMAT
  1
CONTENTFORMAT_BEGIN
 90
        0
 91
        0
 92
      512
 93
        0
300

 40
0.0
140
1.0
 94
        5
 62
     0
340
11
144
4.5
309
CONTENTFORMAT_END
171
     1
301
MARGIN
  1
CELLMARGIN_BEGIN
 40
1.5
 40
1.5
 40
1.5
 40
1.5
 40
4.5
 40
4.5
309
CELLMARGIN_END
 94
        6
 95
        1
302
GRIDFORMAT
  1
GRIDFORMAT_BEGIN
 90
        0
 91
        1
 62
     0
 92
       -2
340
0
 93
        0
 40
1.125
309
GRIDFORMAT_END
 95
        2
302
GRIDFORMAT
  1
GRIDFORMAT_BEGIN
 90
        0
 91
        1
 62
     0
 92
       -2
340
0
 93
        0
 40
1.125
309
GRIDFORMAT_END
 95
        4
302
GRIDFORMAT
  1
GRIDFORMAT_BEGIN
 90
        0
 91
        1
 62
     0
 92
       -2
340
0
 93
        0
 40
1.125
309
GRIDFORMAT_END
 95
        8
302
GRIDFORMAT
  1
GRIDFORMAT_BEGIN
 90
        0
 91
        1
 62
     0
 92
       -2
340
0
 93
        0
 40
1.125
309
GRIDFORMAT_END
 95
       16
302
GRIDFORMAT
  1
GRIDFORMAT_BEGIN
 90
        0
 91
        1
 62
     0
 92
       -2
340
0
 93
        0
 40
1.125
309
GRIDFORMAT_END
 95
       32
302
GRIDFORMAT
  1
GRIDFORMAT_BEGIN
 90
        0
 91
        1
 62
     0
 92
       -2
340
0
 93
        0
 40
1.125
309
GRIDFORMAT_END
309
TABLEFORMAT_END
  1
CELLSTYLE_BEGIN
 90
        2
 91
        1
300
_HEADER
309
CELLSTYLE_END
300
CELLSTYLE
  1
TABLEFORMAT_BEGIN
 90
        5
170
     1
 91
        0
 92
        0
 62
   257
 93
        1
300
CONTENTFORMAT
  1
CONTENTFORMAT_BEGIN
 90
        0
 91
        0
 92
      512
 93
        0
300

 40
0.0
140
1.0
 94
        2
 62
     0
340
11
144
4.5
309
CONTENTFORMAT_END
171
     1
301
MARGIN
  1
CELLMARGIN_BEGIN
 40
1.5
 40
1.5
 40
1.5
 40
1.5
 40
4.5
 40
4.5
309
CELLMARGIN_END
 94
        6
 95
        1
302
GRIDFORMAT
  1
GRIDFORMAT_BEGIN
 90
        0
 91
        1
 62
     0
 92
       -2
340
0
 93
        0
 40
1.125
309
GRIDFORMAT_END
 95
        2
302
GRIDFORMAT
  1
GRIDFORMAT_BEGIN
 90
        0
 91
        1
 62
     0
 92
       -2
340
0
 93
        0
 40
1.125
309
GRIDFORMAT_END
 95
        4
302
GRIDFORMAT
  1
GRIDFORMAT_BEGIN
 90
        0
 91
        1
 62
     0
 92
       -2
340
0
 93
        0
 40
1.125
309
GRIDFORMAT_END
 95
        8
302
GRIDFORMAT
  1
GRIDFORMAT_BEGIN
 90
        0
 91
        1
 62
     0
 92
       -2
340
0
 93
        0
 40
1.125
309
GRIDFORMAT_END
 95
       16
302
GRIDFORMAT
  1
GRIDFORMAT_BEGIN
 90
        0
 91
        1
 62
     0
 92
       -2
340
0
 93
        0
 40
1.125
309
GRIDFORMAT_END
 95
       32
302
GRIDFORMAT
  1
GRIDFORMAT_BEGIN
 90
        0
 91
        1
 62
     0
 92
       -2
340
0
 93
        0
 40
1.125
309
GRIDFORMAT_END
309
TABLEFORMAT_END
  1
CELLSTYLE_BEGIN
 90
        3
 91
        2
300
_DATA
309
CELLSTYLE_END
  0
ENDSEC
  0
EOF
